  0
SECTION
  2
ENTITIES
  0
ARC
  8
APS_GEOMETRY
 10
-16.674632
 20
73.685622
 40
6.105738
 50
201.011977
 51
231.064793
  0
ARC
  8
APS_GEOMETRY
 10
-15.027629
 20
75.918069
 40
8.878144
 50
231.851051
 51
256.598227
  0
ARC
  8
APS_GEOMETRY
 10
-14.742906
 20
75.646374
 40
8.686494
 50
254.355408
 51
276.161541
  0
ARC
  8
APS_GEOMETRY
 10
-14.491289
 20
77.923322
 40
10.934471
 50
273.569236
 51
289.073027
  0
ARC
  8
APS_GEOMETRY
 10
-13.358224
 20
74.634826
 40
7.45625
 50
289.101682
 51
316.443609
  0
ARC
  8
APS_GEOMETRY
 10
-14.513653
 20
74.818068
 40
8.445944
 50
320.948463
 51
340.20558
  0
ARC
  8
APS_GEOMETRY
 10
-11.664799
 20
73.571821
 40
5.347423
 50
342.433254
 51
13.308554
  0
ARC
  8
APS_GEOMETRY
 10
-12.450974
 20
73.355528
 40
6.162345
 50
13.582944
 51
40.534827
  0
ARC
  8
APS_GEOMETRY
 10
-12.717228
 20
73.057656
 40
6.558508
 50
41.00086
 51
67.184064
  0
ARC
  8
APS_GEOMETRY
 10
-14.478293
 20
69.183509
 40
10.813092
 50
66.542977
 51
83.086145
  0
ARC
  8
APS_GEOMETRY
 10
-14.566599
 20
66.269006
 40
13.719555
 50
84.185286
 51
96.112388
  0
ARC
  8
APS_GEOMETRY
 10
-14.273928
 20
66.984408
 40
13.044553
 50
97.725384
 51
109.483568
  0
ARC
  8
APS_GEOMETRY
 10
-16.481763
 20
73.298964
 40
6.355241
 50
109.706491
 51
138.371963
  0
ARC
  8
APS_GEOMETRY
 10
-16.811756
 20
73.358419
 40
6.0716
 50
136.722481
 51
165.005981
  0
ARC
  8
APS_GEOMETRY
 10
-17.168935
 20
73.788034
 40
5.624691
 50
168.29373
 51
175.116805
  0
ARC
  8
APS_GEOMETRY
 10
-17.942152
 20
73.548346
 40
4.884193
 50
171.540819
 51
204.843067
  0
ARC
  8
APS_GEOMETRY
 10
-16.674632
 20
73.685622
 40
7.385738
 50
201.340522
 51
231.133873
  0
ARC
  8
APS_GEOMETRY
 10
-15.027629
 20
75.918069
 40
10.158144
 50
231.802202
 51
256.457004
  0
ARC
  8
APS_GEOMETRY
 10
-14.742906
 20
75.646374
 40
9.966494
 50
254.499546
 51
275.993938
  0
ARC
  8
APS_GEOMETRY
 10
-14.491289
 20
77.923322
 40
12.214471
 50
273.704176
 51
289.07451
  0
ARC
  8
APS_GEOMETRY
 10
-13.358224
 20
74.634826
 40
8.73625
 50
289.099558
 51
316.775192
  0
ARC
  8
APS_GEOMETRY
 10
-14.513653
 20
74.818068
 40
9.725944
 50
320.65319
 51
340.34949
  0
ARC
  8
APS_GEOMETRY
 10
-11.664799
 20
73.571821
 40
6.627423
 50
342.214158
 51
13.335223
  0
ARC
  8
APS_GEOMETRY
 10
-12.450974
 20
73.355528
 40
7.442345
 50
13.5595
 51
40.575008
  0
ARC
  8
APS_GEOMETRY
 10
-12.717228
 20
73.057656
 40
7.838508
 50
40.962909
 51
67.130851
  0
ARC
  8
APS_GEOMETRY
 10
-14.478293
 20
69.183509
 40
12.093092
 50
66.576342
 51
83.144646
  0
ARC
  8
APS_GEOMETRY
 10
-14.566599
 20
66.269006
 40
14.999555
 50
84.138653
 51
96.18114
  0
ARC
  8
APS_GEOMETRY
 10
-14.273928
 20
66.984408
 40
14.324553
 50
97.653234
 51
109.493304
  0
ARC
  8
APS_GEOMETRY
 10
-16.481763
 20
73.298964
 40
7.635241
 50
109.687386
 51
138.233962
  0
ARC
  8
APS_GEOMETRY
 10
-16.811756
 20
73.358419
 40
7.3516
 50
136.866366
 51
165.291274
  0
ARC
  8
APS_GEOMETRY
 10
-17.168935
 20
73.788034
 40
6.904691
 50
167.987877
 51
174.787564
  0
ARC
  8
APS_GEOMETRY
 10
-17.942152
 20
73.548346
 40
6.164193
 50
171.914758
 51
204.440973
  0
ENDSEC
  0
EOF
