  0
SECTION
  2
ENTITIES
  0
ARC
  8
APS_GEOMETRY
 10
2.912878
 20
4.437567
 40
1.702184
 50
177.681112
 51
271.18229
  0
LINE
  8
APS_GEOMETRY
 10
1.212088
 11
1.228771
 20
4.506439
 21
6.575407
  0
LINE
  8
APS_GEOMETRY
 10
1.228771
 11
1.24619
 20
6.575407
 21
9.929185
  0
LINE
  8
APS_GEOMETRY
 10
1.24619
 11
1.228771
 20
9.929185
 21
13.282963
  0
LINE
  8
APS_GEOMETRY
 10
1.228771
 11
1.212088
 20
13.282963
 21
15.351931
  0
ARC
  8
APS_GEOMETRY
 10
2.912878
 20
15.420803
 40
1.702184
 50
86.352405
 51
182.318888
  0
LINE
  8
APS_GEOMETRY
 10
3.02117
 11
3.899759
 20
17.11954
 21
17.10344
  0
LINE
  8
APS_GEOMETRY
 10
3.899759
 11
4.604826
 20
17.10344
 21
17.107384
  0
LINE
  8
APS_GEOMETRY
 10
4.604826
 11
7.012759
 20
17.107384
 21
17.142373
  0
LINE
  8
APS_GEOMETRY
 10
7.012759
 11
9.420693
 20
17.142373
 21
17.107384
  0
LINE
  8
APS_GEOMETRY
 10
9.420693
 11
10.10576
 20
17.107384
 21
17.103552
  0
LINE
  8
APS_GEOMETRY
 10
10.10576
 11
10.961369
 20
17.103552
 21
17.119571
  0
ARC
  8
APS_GEOMETRY
 10
11.072641
 20
15.421027
 40
1.702184
 50
357.681112
 51
93.748083
  0
LINE
  8
APS_GEOMETRY
 10
12.773431
 11
12.756748
 20
15.352155
 21
13.283187
  0
LINE
  8
APS_GEOMETRY
 10
12.756748
 11
12.739329
 20
13.283187
 21
9.929409
  0
LINE
  8
APS_GEOMETRY
 10
12.739329
 11
12.756748
 20
9.929409
 21
6.575631
  0
LINE
  8
APS_GEOMETRY
 10
12.756748
 11
12.773431
 20
6.575631
 21
4.506663
  0
ARC
  8
APS_GEOMETRY
 10
11.072641
 20
4.43779
 40
1.702184
 50
264.311408
 51
2.318888
  0
LINE
  8
APS_GEOMETRY
 10
10.903917
 11
10.10576
 20
2.743989
 21
2.754818
  0
LINE
  8
APS_GEOMETRY
 10
10.10576
 11
9.420693
 20
2.754818
 21
2.750987
  0
LINE
  8
APS_GEOMETRY
 10
9.420693
 11
7.012759
 20
2.750987
 21
2.715997
  0
LINE
  8
APS_GEOMETRY
 10
7.012759
 11
4.604826
 20
2.715997
 21
2.750987
  0
LINE
  8
APS_GEOMETRY
 10
4.604826
 11
3.899759
 20
2.750987
 21
2.75493
  0
LINE
  8
APS_GEOMETRY
 10
3.899759
 11
2.948
 20
2.75493
 21
2.735745
  0
LINE
  8
APS_GEOMETRY
 10
7.012759
 11
8.266984
 20
9.929409
 21
9.929409
  0
LINE
  8
APS_GEOMETRY
 10
11.23953
 11
12.739329
 20
9.929409
 21
9.929409
  0
LINE
  8
APS_GEOMETRY
 10
7.012759
 11
7.012759
 20
17.142373
 21
12.974337
  0
LINE
  8
APS_GEOMETRY
 10
7.012759
 11
7.012759
 20
10.128014
 21
2.715997
  0
LINE
  8
APS_GEOMETRY
 10
1.723289
 11
3.137502
 20
16.638305
 21
15.224091
  0
LINE
  8
APS_GEOMETRY
 10
12.261162
 11
10.846948
 20
16.639571
 21
15.225357
  0
LINE
  8
APS_GEOMETRY
 10
1.697373
 11
3.111587
 20
3.245938
 21
4.660152
  0
LINE
  8
APS_GEOMETRY
 10
12.240357
 11
10.826144
 20
3.199296
 21
4.613509
  0
ARC
  8
CONSTRUCTION
 10
1.3741
 20
10.152091
 40
0.182363
 50
31.026839
 51
40.045456
  0
ARC
  8
CONSTRUCTION
 10
1.437037
 20
10.208029
 40
0.09822
 50
38.687092
 51
141.311843
  0
ARC
  8
CONSTRUCTION
 10
1.502277
 20
10.154426
 40
0.182653
 50
140.979262
 51
219.021887
  0
ARC
  8
CONSTRUCTION
 10
1.43704
 20
10.100819
 40
0.09822
 50
218.687682
 51
321.31267
  0
ARC
  8
CONSTRUCTION
 10
1.372976
 20
10.14653
 40
0.176853
 50
322.7266
 51
335.3459
  0
LINE
  8
CONSTRUCTION
 10
1.566864
 11
1.710865
 20
10.111528
 21
10.111528
  0
ARC
  8
CONSTRUCTION
 10
1.621899
 20
10.114785
 40
0.089025
 50
357.902951
 51
30.171303
  0
ARC
  8
CONSTRUCTION
 10
1.641756
 20
10.126615
 40
0.065913
 50
29.956335
 51
89.906216
  0
ARC
  8
CONSTRUCTION
 10
1.641997
 20
10.121929
 40
0.070599
 50
90.107586
 51
153.41119
  0
ARC
  8
CONSTRUCTION
 10
1.686786
 20
10.099528
 40
0.120678
 50
153.418148
 51
206.580991
  0
ARC
  8
CONSTRUCTION
 10
1.641996
 20
10.077128
 40
0.070599
 50
206.588564
 51
269.892739
  0
ARC
  8
CONSTRUCTION
 10
1.641579
 20
10.083709
 40
0.077181
 50
270.2113
 51
325.0807
  0
LINE
  8
CONSTRUCTION
 10
1.869869
 11
1.869871
 20
10.001875
 21
10.139876
  0
ARC
  8
CONSTRUCTION
 10
1.819139
 20
10.140142
 40
0.050733
 50
359.698802
 51
90.305782
  0
ARC
  8
CONSTRUCTION
 10
1.8188
 20
10.103611
 40
0.087264
 50
89.9552
 51
153.2598
  0
LINE
  8
CONSTRUCTION
 10
1.740869
 11
1.740869
 20
10.001875
 21
10.190875
  0
LINE
  8
CONSTRUCTION
 10
1.964808
 11
1.964808
 20
10.271875
 21
10.001875
  0
LINE
  8
CONSTRUCTION
 10
1.928808
 11
2.003808
 20
10.187875
 21
10.187875
  0
LINE
  8
CONSTRUCTION
 10
2.035684
 11
2.179685
 20
10.111528
 21
10.111528
  0
ARC
  8
CONSTRUCTION
 10
2.090719
 20
10.114785
 40
0.089025
 50
357.902951
 51
30.171303
  0
ARC
  8
CONSTRUCTION
 10
2.110576
 20
10.126615
 40
0.065913
 50
29.956335
 51
89.906216
  0
ARC
  8
CONSTRUCTION
 10
2.110817
 20
10.121929
 40
0.070599
 50
90.107586
 51
153.41119
  0
ARC
  8
CONSTRUCTION
 10
2.155606
 20
10.099528
 40
0.120678
 50
153.418148
 51
206.580991
  0
ARC
  8
CONSTRUCTION
 10
2.110816
 20
10.077128
 40
0.070599
 50
206.588564
 51
269.892739
  0
ARC
  8
CONSTRUCTION
 10
2.110399
 20
10.083709
 40
0.077181
 50
270.2113
 51
325.0807
  0
ARC
  8
CONSTRUCTION
 10
2.325756
 20
10.112401
 40
0.078477
 50
89.6195
 51
170.8532
  0
LINE
  8
CONSTRUCTION
 10
2.248278
 11
2.248278
 20
10.190875
 21
10.001875
  0
LINE
  8
CONSTRUCTION
 10
2.209688
 11
2.286867
 20
10.001875
 21
10.001875
  0
LINE
  8
CONSTRUCTION
 10
2.403596
 11
2.403596
 20
10.001875
 21
10.271875
  0
LINE
  8
CONSTRUCTION
 10
2.403596
 11
2.381556
 20
10.271875
 21
10.271875
  0
LINE
  8
CONSTRUCTION
 10
2.356277
 11
2.403596
 20
10.001875
 21
10.001875
  0
LINE
  8
CONSTRUCTION
 10
2.403596
 11
2.450916
 20
10.001875
 21
10.001875
  0
LINE
  8
CONSTRUCTION
 10
2.549505
 11
2.549505
 20
10.274875
 21
10.250875
  0
LINE
  8
CONSTRUCTION
 10
2.549505
 11
2.549505
 20
10.001875
 21
10.190875
  0
LINE
  8
CONSTRUCTION
 10
2.510916
 11
2.588094
 20
10.001875
 21
10.001875
  0
LINE
  8
CONSTRUCTION
 10
2.777094
 11
2.777097
 20
10.001875
 21
10.139876
  0
ARC
  8
CONSTRUCTION
 10
2.726364
 20
10.140142
 40
0.050733
 50
359.698802
 51
90.305782
  0
ARC
  8
CONSTRUCTION
 10
2.726025
 20
10.103611
 40
0.087264
 50
89.9552
 51
153.2598
  0
LINE
  8
CONSTRUCTION
 10
2.648094
 11
2.648094
 20
10.001875
 21
10.190875
  0
LINE
  8
CONSTRUCTION
 10
2.80791
 11
2.95191
 20
10.111528
 21
10.111528
  0
ARC
  8
CONSTRUCTION
 10
2.862945
 20
10.114785
 40
0.089025
 50
357.902951
 51
30.171303
  0
ARC
  8
CONSTRUCTION
 10
2.882802
 20
10.126615
 40
0.065913
 50
29.956335
 51
89.906216
  0
ARC
  8
CONSTRUCTION
 10
2.883043
 20
10.121929
 40
0.070599
 50
90.107586
 51
153.41119
  0
ARC
  8
CONSTRUCTION
 10
2.927832
 20
10.099528
 40
0.120678
 50
153.418148
 51
206.580991
  0
ARC
  8
CONSTRUCTION
 10
2.883042
 20
10.077128
 40
0.070599
 50
206.588564
 51
269.892739
  0
ARC
  8
CONSTRUCTION
 10
2.882625
 20
10.083709
 40
0.077181
 50
270.2113
 51
325.0807
  0
ARC
  8
CONSTRUCTION
 10
6.787593
 20
2.842001
 40
0.182363
 50
121.026839
 51
130.045456
  0
ARC
  8
CONSTRUCTION
 10
6.731655
 20
2.904939
 40
0.09822
 50
128.687092
 51
231.311843
  0
ARC
  8
CONSTRUCTION
 10
6.785258
 20
2.970179
 40
0.182653
 50
230.979262
 51
309.021887
  0
ARC
  8
CONSTRUCTION
 10
6.838865
 20
2.904942
 40
0.09822
 50
308.687682
 51
51.31267
  0
ARC
  8
CONSTRUCTION
 10
6.793154
 20
2.840877
 40
0.176853
 50
52.7266
 51
65.3459
  0
LINE
  8
CONSTRUCTION
 10
6.828156
 11
6.828156
 20
3.034766
 21
3.178767
  0
ARC
  8
CONSTRUCTION
 10
6.824898
 20
3.089801
 40
0.089025
 50
87.902951
 51
120.171303
  0
ARC
  8
CONSTRUCTION
 10
6.813069
 20
3.109658
 40
0.065913
 50
119.956335
 51
179.906216
  0
ARC
  8
CONSTRUCTION
 10
6.817755
 20
3.109899
 40
0.070599
 50
180.107586
 51
243.41119
  0
ARC
  8
CONSTRUCTION
 10
6.840156
 20
3.154688
 40
0.120678
 50
243.418148
 51
296.580991
  0
ARC
  8
CONSTRUCTION
 10
6.862556
 20
3.109898
 40
0.070599
 50
296.588564
 51
359.892739
  0
ARC
  8
CONSTRUCTION
 10
6.855975
 20
3.109481
 40
0.077181
 50
0.2113
 51
55.0807
  0
LINE
  8
CONSTRUCTION
 10
6.937809
 11
6.799808
 20
3.33777
 21
3.337773
  0
ARC
  8
CONSTRUCTION
 10
6.799542
 20
3.28704
 40
0.050733
 50
89.698802
 51
180.305782
  0
ARC
  8
CONSTRUCTION
 10
6.836073
 20
3.286701
 40
0.087264
 50
179.9552
 51
243.2598
  0
LINE
  8
CONSTRUCTION
 10
6.937809
 11
6.748809
 20
3.20877
 21
3.20877
  0
LINE
  8
CONSTRUCTION
 10
6.667809
 11
6.937809
 20
3.432709
 21
3.432709
  0
LINE
  8
CONSTRUCTION
 10
6.751809
 11
6.751809
 20
3.396709
 21
3.471709
  0
LINE
  8
CONSTRUCTION
 10
6.828156
 11
6.828156
 20
3.503586
 21
3.647586
  0
ARC
  8
CONSTRUCTION
 10
6.824898
 20
3.558621
 40
0.089025
 50
87.902951
 51
120.171303
  0
ARC
  8
CONSTRUCTION
 10
6.813069
 20
3.578478
 40
0.065913
 50
119.956335
 51
179.906216
  0
ARC
  8
CONSTRUCTION
 10
6.817755
 20
3.578718
 40
0.070599
 50
180.107586
 51
243.41119
  0
ARC
  8
CONSTRUCTION
 10
6.840156
 20
3.623508
 40
0.120678
 50
243.418148
 51
296.580991
  0
ARC
  8
CONSTRUCTION
 10
6.862556
 20
3.578718
 40
0.070599
 50
296.588564
 51
359.892739
  0
ARC
  8
CONSTRUCTION
 10
6.855975
 20
3.578301
 40
0.077181
 50
0.2113
 51
55.0807
  0
ARC
  8
CONSTRUCTION
 10
6.827283
 20
3.793657
 40
0.078477
 50
179.6195
 51
260.8532
  0
LINE
  8
CONSTRUCTION
 10
6.748809
 11
6.937809
 20
3.716179
 21
3.716179
  0
LINE
  8
CONSTRUCTION
 10
6.937809
 11
6.937809
 20
3.67759
 21
3.754769
  0
LINE
  8
CONSTRUCTION
 10
6.937809
 11
6.667809
 20
3.871498
 21
3.871498
  0
LINE
  8
CONSTRUCTION
 10
6.667809
 11
6.667809
 20
3.871498
 21
3.849457
  0
LINE
  8
CONSTRUCTION
 10
6.937809
 11
6.937809
 20
3.824179
 21
3.871498
  0
LINE
  8
CONSTRUCTION
 10
6.937809
 11
6.937809
 20
3.871498
 21
3.918818
  0
LINE
  8
CONSTRUCTION
 10
6.664809
 11
6.688809
 20
4.017407
 21
4.017407
  0
LINE
  8
CONSTRUCTION
 10
6.937809
 11
6.748809
 20
4.017407
 21
4.017407
  0
LINE
  8
CONSTRUCTION
 10
6.937809
 11
6.937809
 20
3.978818
 21
4.055996
  0
LINE
  8
CONSTRUCTION
 10
6.937809
 11
6.799808
 20
4.244996
 21
4.244999
  0
ARC
  8
CONSTRUCTION
 10
6.799542
 20
4.194266
 40
0.050733
 50
89.698802
 51
180.305782
  0
ARC
  8
CONSTRUCTION
 10
6.836073
 20
4.193927
 40
0.087264
 50
179.9552
 51
243.2598
  0
LINE
  8
CONSTRUCTION
 10
6.937809
 11
6.748809
 20
4.115996
 21
4.115996
  0
LINE
  8
CONSTRUCTION
 10
6.828156
 11
6.828156
 20
4.275812
 21
4.419812
  0
ARC
  8
CONSTRUCTION
 10
6.824898
 20
4.330847
 40
0.089025
 50
87.902951
 51
120.171303
  0
ARC
  8
CONSTRUCTION
 10
6.813069
 20
4.350704
 40
0.065913
 50
119.956335
 51
179.906216
  0
ARC
  8
CONSTRUCTION
 10
6.817755
 20
4.350944
 40
0.070599
 50
180.107586
 51
243.41119
  0
ARC
  8
CONSTRUCTION
 10
6.840156
 20
4.395734
 40
0.120678
 50
243.418148
 51
296.580991
  0
ARC
  8
CONSTRUCTION
 10
6.862556
 20
4.350944
 40
0.070599
 50
296.588564
 51
359.892739
  0
ARC
  8
CONSTRUCTION
 10
6.855975
 20
4.350527
 40
0.077181
 50
0.2113
 51
55.0807
  0
LINE
  8
CONSTRUCTION
 10
3.026214
 11
3.136326
 20
14.580556
 21
14.672316
  0
ARC
  8
CONSTRUCTION
 10
3.087245
 20
14.731213
 40
0.076667
 50
309.805571
 51
129.805571
  0
LINE
  8
CONSTRUCTION
 10
3.038164
 11
2.928053
 20
14.79011
 21
14.69835
  0
LINE
  8
CONSTRUCTION
 10
2.928053
 11
3.120108
 20
14.69835
 21
14.467883
  0
LINE
  8
CONSTRUCTION
 10
3.128644
 11
3.273752
 20
14.665914
 21
14.59592
  0
LINE
  8
CONSTRUCTION
 10
10.246733
 11
10.34919
 20
15.269824
 21
15.169589
  0
ARC
  8
CONSTRUCTION
 10
10.402804
 20
15.224391
 40
0.076667
 50
225.627947
 51
45.627947
  0
LINE
  8
CONSTRUCTION
 10
10.456418
 11
10.353962
 20
15.279194
 21
15.379429
  0
LINE
  8
CONSTRUCTION
 10
10.353962
 11
10.144167
 20
15.379429
 21
15.164984
  0
LINE
  8
CONSTRUCTION
 10
10.342042
 11
10.28713
 20
15.176582
 21
15.025122
  0
LINE
  8
CONSTRUCTION
 10
3.472455
 11
3.512106
 20
14.782647
 21
14.815462
  0
LINE
  8
CONSTRUCTION
 10
3.512106
 11
3.551757
 20
14.815462
 21
14.848277
  0
LINE
  8
CONSTRUCTION
 10
3.512106
 11
3.320836
 20
14.815462
 21
15.04658
  0
LINE
  8
CONSTRUCTION
 10
3.320836
 11
3.313999
 20
15.04658
 21
14.974114
  0
CIRCLE
  8
CONSTRUCTION
 10
3.601499
 20
14.928531
 40
0.03
  0
LINE
  8
CONSTRUCTION
 10
3.505422
 11
3.67234
 20
15.199546
 21
15.337685
  0
LINE
  8
CONSTRUCTION
 10
3.67234
 11
3.682965
 20
15.337685
 21
15.324845
  0
ARC
  8
CONSTRUCTION
 10
4.014808
 20
15.24472
 40
0.34138
 50
166.425488
 51
221.294888
  0
ARC
  8
CONSTRUCTION
 10
3.934568
 20
15.287829
 40
0.09822
 50
258.299388
 51
0.921988
  0
ARC
  8
CONSTRUCTION
 10
3.850131
 20
15.287532
 40
0.182653
 50
0.588802
 51
78.631427
  0
ARC
  8
CONSTRUCTION
 10
3.866216
 20
15.370423
 40
0.09822
 50
78.298845
 51
180.923596
  0
ARC
  8
CONSTRUCTION
 10
3.950653
 20
15.37072
 40
0.182653
 50
180.589663
 51
258.631713
  0
LINE
  8
CONSTRUCTION
 10
3.973548
 11
3.961992
 20
15.569253
 21
15.559689
  0
LINE
  8
CONSTRUCTION
 10
3.961992
 11
3.952429
 20
15.559689
 21
15.571245
  0
LINE
  8
CONSTRUCTION
 10
3.952429
 11
3.963985
 20
15.571245
 21
15.580808
  0
LINE
  8
CONSTRUCTION
 10
3.963985
 11
3.986937
 20
15.580808
 21
15.553074
  0
LINE
  8
CONSTRUCTION
 10
3.986937
 11
3.998015
 20
15.553074
 21
15.534983
  0
LINE
  8
CONSTRUCTION
 10
3.998015
 11
4.002956
 20
15.534983
 21
15.519602
  0
LINE
  8
CONSTRUCTION
 10
4.029854
 11
4.018298
 20
15.615512
 21
15.605948
  0
LINE
  8
CONSTRUCTION
 10
4.018298
 11
4.008734
 20
15.605948
 21
15.617504
  0
LINE
  8
CONSTRUCTION
 10
4.008734
 11
4.02029
 20
15.617504
 21
15.627067
  0
LINE
  8
CONSTRUCTION
 10
4.02029
 11
4.043242
 20
15.627067
 21
15.599333
  0
LINE
  8
CONSTRUCTION
 10
4.043242
 11
4.05432
 20
15.599333
 21
15.581242
  0
LINE
  8
CONSTRUCTION
 10
4.05432
 11
4.059261
 20
15.581242
 21
15.565861
  0
LINE
  8
CONSTRUCTION
 10
10.469601
 11
10.507537
 20
14.88983
 21
14.855046
  0
LINE
  8
CONSTRUCTION
 10
10.507537
 11
10.545473
 20
14.855046
 21
14.820262
  0
LINE
  8
CONSTRUCTION
 10
10.507537
 11
10.710284
 20
14.855046
 21
15.076165
  0
LINE
  8
CONSTRUCTION
 10
10.710284
 11
10.637564
 20
15.076165
 21
15.073013
  0
CIRCLE
  8
CONSTRUCTION
 10
10.631783
 20
14.78198
 40
0.03
  0
LINE
  8
CONSTRUCTION
 10
10.887086
 11
11.046784
 20
14.914266
 21
14.767838
  0
LINE
  8
CONSTRUCTION
 10
11.046784
 11
11.035519
 20
14.767838
 21
14.755555
  0
ARC
  8
CONSTRUCTION
 10
11.001593
 20
14.415865
 40
0.34138
 50
84.29667
 51
139.16607
  0
ARC
  8
CONSTRUCTION
 10
11.033308
 20
14.501253
 40
0.09822
 50
176.17057
 51
278.79317
  0
ARC
  8
CONSTRUCTION
 10
11.021451
 20
14.584854
 40
0.182653
 50
278.459984
 51
356.502609
  0
ARC
  8
CONSTRUCTION
 10
11.105764
 20
14.580272
 40
0.09822
 50
356.170027
 51
98.794778
  0
ARC
  8
CONSTRUCTION
 10
11.117621
 20
14.496672
 40
0.182653
 50
98.460845
 51
176.502895
  0
LINE
  8
CONSTRUCTION
 10
11.317418
 11
11.306362
 20
14.50118
 21
14.511317
  0
LINE
  8
CONSTRUCTION
 10
11.306362
 11
11.3165
 20
14.511317
 21
14.522373
  0
LINE
  8
CONSTRUCTION
 10
11.3165
 11
11.327556
 20
14.522373
 21
14.512236
  0
LINE
  8
CONSTRUCTION
 10
11.327556
 11
11.303226
 20
14.512236
 21
14.485702
  0
LINE
  8
CONSTRUCTION
 10
11.303226
 11
11.286823
 20
14.485702
 21
14.472251
  0
LINE
  8
CONSTRUCTION
 10
11.286823
 11
11.272263
 20
14.472251
 21
14.46525
  0
LINE
  8
CONSTRUCTION
 10
11.370952
 11
11.359896
 20
14.45174
 21
14.461878
  0
LINE
  8
CONSTRUCTION
 10
11.359896
 11
11.370034
 20
14.461878
 21
14.472934
  0
LINE
  8
CONSTRUCTION
 10
11.370034
 11
11.38109
 20
14.472934
 21
14.462796
  0
LINE
  8
CONSTRUCTION
 10
11.38109
 11
11.35676
 20
14.462796
 21
14.436262
  0
LINE
  8
CONSTRUCTION
 10
11.35676
 11
11.340357
 20
14.436262
 21
14.422811
  0
LINE
  8
CONSTRUCTION
 10
11.340357
 11
11.325797
 20
14.422811
 21
14.41581
  0
LINE
  8
CONSTRUCTION
 10
10.047235
 11
10.157347
 20
4.489394
 21
4.581153
  0
ARC
  8
CONSTRUCTION
 10
10.108266
 20
4.64005
 40
0.076667
 50
309.805571
 51
129.805571
  0
LINE
  8
CONSTRUCTION
 10
10.059185
 11
9.949074
 20
4.698947
 21
4.607188
  0
LINE
  8
CONSTRUCTION
 10
9.949074
 11
10.141129
 20
4.607188
 21
4.376721
  0
LINE
  8
CONSTRUCTION
 10
10.149665
 11
10.294773
 20
4.574752
 21
4.504758
  0
LINE
  8
CONSTRUCTION
 10
10.493476
 11
10.533127
 20
4.691485
 21
4.7243
  0
LINE
  8
CONSTRUCTION
 10
10.533127
 11
10.572778
 20
4.7243
 21
4.757115
  0
LINE
  8
CONSTRUCTION
 10
10.533127
 11
10.341857
 20
4.7243
 21
4.955418
  0
LINE
  8
CONSTRUCTION
 10
10.341857
 11
10.33502
 20
4.955418
 21
4.882952
  0
CIRCLE
  8
CONSTRUCTION
 10
10.62252
 20
4.837369
 40
0.03
  0
LINE
  8
CONSTRUCTION
 10
10.526443
 11
10.693362
 20
5.108383
 21
5.246523
  0
LINE
  8
CONSTRUCTION
 10
10.693362
 11
10.703986
 20
5.246523
 21
5.233683
  0
ARC
  8
CONSTRUCTION
 10
11.035829
 20
5.153557
 40
0.34138
 50
166.425488
 51
221.294888
  0
ARC
  8
CONSTRUCTION
 10
10.955589
 20
5.196667
 40
0.09822
 50
258.299388
 51
0.921988
  0
ARC
  8
CONSTRUCTION
 10
10.871152
 20
5.19637
 40
0.182653
 50
0.588802
 51
78.631427
  0
ARC
  8
CONSTRUCTION
 10
10.887237
 20
5.279261
 40
0.09822
 50
78.298845
 51
180.923596
  0
ARC
  8
CONSTRUCTION
 10
10.971674
 20
5.279557
 40
0.182653
 50
180.589663
 51
258.631713
  0
LINE
  8
CONSTRUCTION
 10
10.994569
 11
10.983013
 20
5.47809
 21
5.468527
  0
LINE
  8
CONSTRUCTION
 10
10.983013
 11
10.97345
 20
5.468527
 21
5.480083
  0
LINE
  8
CONSTRUCTION
 10
10.97345
 11
10.985006
 20
5.480083
 21
5.489646
  0
LINE
  8
CONSTRUCTION
 10
10.985006
 11
11.007958
 20
5.489646
 21
5.461912
  0
LINE
  8
CONSTRUCTION
 10
11.007958
 11
11.019036
 20
5.461912
 21
5.443821
  0
LINE
  8
CONSTRUCTION
 10
11.019036
 11
11.023977
 20
5.443821
 21
5.42844
  0
LINE
  8
CONSTRUCTION
 10
11.050875
 11
11.039319
 20
5.524349
 21
5.514786
  0
LINE
  8
CONSTRUCTION
 10
11.039319
 11
11.029755
 20
5.514786
 21
5.526342
  0
LINE
  8
CONSTRUCTION
 10
11.029755
 11
11.041311
 20
5.526342
 21
5.535905
  0
LINE
  8
CONSTRUCTION
 10
11.041311
 11
11.064263
 20
5.535905
 21
5.508171
  0
LINE
  8
CONSTRUCTION
 10
11.064263
 11
11.075341
 20
5.508171
 21
5.49008
  0
LINE
  8
CONSTRUCTION
 10
11.075341
 11
11.080282
 20
5.49008
 21
5.474699
  0
LINE
  8
CONSTRUCTION
 10
2.939983
 11
3.042439
 20
5.267761
 21
5.167526
  0
ARC
  8
CONSTRUCTION
 10
3.096053
 20
5.222329
 40
0.076667
 50
225.627947
 51
45.627947
  0
LINE
  8
CONSTRUCTION
 10
3.149668
 11
3.047211
 20
5.277131
 21
5.377366
  0
LINE
  8
CONSTRUCTION
 10
3.047211
 11
2.837416
 20
5.377366
 21
5.162922
  0
LINE
  8
CONSTRUCTION
 10
3.035291
 11
2.980379
 20
5.174519
 21
5.023059
  0
LINE
  8
CONSTRUCTION
 10
3.16285
 11
3.200786
 20
4.887767
 21
4.852983
  0
LINE
  8
CONSTRUCTION
 10
3.200786
 11
3.238722
 20
4.852983
 21
4.818199
  0
LINE
  8
CONSTRUCTION
 10
3.200786
 11
3.403533
 20
4.852983
 21
5.074102
  0
LINE
  8
CONSTRUCTION
 10
3.403533
 11
3.330814
 20
5.074102
 21
5.07095
  0
CIRCLE
  8
CONSTRUCTION
 10
3.325032
 20
4.779917
 40
0.03
  0
LINE
  8
CONSTRUCTION
 10
3.580336
 11
3.740033
 20
4.912204
 21
4.765775
  0
LINE
  8
CONSTRUCTION
 10
3.740033
 11
3.728768
 20
4.765775
 21
4.753493
  0
ARC
  8
CONSTRUCTION
 10
3.694843
 20
4.413803
 40
0.34138
 50
84.29667
 51
139.16607
  0
ARC
  8
CONSTRUCTION
 10
3.726557
 20
4.499191
 40
0.09822
 50
176.17057
 51
278.79317
  0
ARC
  8
CONSTRUCTION
 10
3.7147
 20
4.582791
 40
0.182653
 50
278.459984
 51
356.502609
  0
ARC
  8
CONSTRUCTION
 10
3.799013
 20
4.578209
 40
0.09822
 50
356.170027
 51
98.794778
  0
ARC
  8
CONSTRUCTION
 10
3.81087
 20
4.494609
 40
0.182653
 50
98.460845
 51
176.502895
  0
LINE
  8
CONSTRUCTION
 10
4.010668
 11
3.999612
 20
4.499117
 21
4.509255
  0
LINE
  8
CONSTRUCTION
 10
3.999612
 11
4.009749
 20
4.509255
 21
4.520311
  0
LINE
  8
CONSTRUCTION
 10
4.009749
 11
4.020805
 20
4.520311
 21
4.510173
  0
LINE
  8
CONSTRUCTION
 10
4.020805
 11
3.996475
 20
4.510173
 21
4.483639
  0
LINE
  8
CONSTRUCTION
 10
3.996475
 11
3.980072
 20
4.483639
 21
4.470188
  0
LINE
  8
CONSTRUCTION
 10
3.980072
 11
3.965512
 20
4.470188
 21
4.463187
  0
LINE
  8
CONSTRUCTION
 10
4.064202
 11
4.053146
 20
4.449678
 21
4.459815
  0
LINE
  8
CONSTRUCTION
 10
4.053146
 11
4.063283
 20
4.459815
 21
4.470871
  0
LINE
  8
CONSTRUCTION
 10
4.063283
 11
4.074339
 20
4.470871
 21
4.460734
  0
LINE
  8
CONSTRUCTION
 10
4.074339
 11
4.050009
 20
4.460734
 21
4.434199
  0
LINE
  8
CONSTRUCTION
 10
4.050009
 11
4.033606
 20
4.434199
 21
4.420749
  0
LINE
  8
CONSTRUCTION
 10
4.033606
 11
4.019046
 20
4.420749
 21
4.413747
  0
LINE
  8
CONSTRUCTION
 10
7.225417
 11
7.225417
 20
10.256184
 21
10.341965
  0
LINE
  8
CONSTRUCTION
 10
7.225417
 11
7.225417
 20
10.341965
 21
10.427746
  0
LINE
  8
CONSTRUCTION
 10
7.225417
 11
6.725417
 20
10.341965
 21
10.341965
  0
LINE
  8
CONSTRUCTION
 10
6.725417
 11
6.811198
 20
10.341965
 21
10.256184
  0
LINE
  8
CONSTRUCTION
 10
7.058579
 11
7.058579
 20
10.959368
 21
10.542701
  0
LINE
  8
CONSTRUCTION
 10
7.058579
 11
7.030801
 20
10.542701
 21
10.542701
  0
LINE
  8
CONSTRUCTION
 10
7.030801
 11
6.725245
 20
10.542701
 21
10.820479
  0
LINE
  8
CONSTRUCTION
 10
6.725245
 11
6.725245
 20
10.820479
 21
10.848257
  0
LINE
  8
CONSTRUCTION
 10
6.725245
 11
7.225245
 20
10.848257
 21
10.848257
  0
CIRCLE
  8
CONSTRUCTION
 10
7.175227
 20
11.09356
 40
0.05
  0
LINE
  8
CONSTRUCTION
 10
7.058579
 11
7.058579
 20
11.676035
 21
11.259368
  0
LINE
  8
CONSTRUCTION
 10
7.058579
 11
7.030801
 20
11.259368
 21
11.259368
  0
LINE
  8
CONSTRUCTION
 10
7.030801
 11
6.725245
 20
11.259368
 21
11.537146
  0
LINE
  8
CONSTRUCTION
 10
6.725245
 11
6.725245
 20
11.537146
 21
11.564923
  0
LINE
  8
CONSTRUCTION
 10
6.725245
 11
7.225245
 20
11.564923
 21
11.564923
  0
LINE
  8
CONSTRUCTION
 10
7.225419
 11
7.225417
 20
12.094413
 21
11.76108
  0
ARC
  8
CONSTRUCTION
 10
7.225181
 20
11.937319
 40
0.176239
 50
211.813563
 51
270.07656
  0
LINE
  8
CONSTRUCTION
 10
7.075419
 11
6.958752
 20
11.844413
 21
12.033301
  0
ARC
  8
CONSTRUCTION
 10
6.853198
 20
11.971817
 40
0.122156
 50
30.220013
 51
149.779436
  0
ARC
  8
CONSTRUCTION
 10
6.923155
 20
11.938853
 40
0.199311
 50
151.713834
 51
208.283685
  0
ARC
  8
CONSTRUCTION
 10
6.852725
 20
11.900335
 40
0.119039
 50
208.0207
 51
259.4717
  0
ARC
  8
CONSTRUCTION
 10
6.888356
 20
12.3953
 40
0.1637
 50
128.687092
 51
231.311843
  0
ARC
  8
CONSTRUCTION
 10
6.977695
 20
12.504033
 40
0.304422
 50
230.979262
 51
309.021887
  0
ARC
  8
CONSTRUCTION
 10
7.067038
 20
12.395303
 40
0.1637
 50
308.688216
 51
51.311676
  0
ARC
  8
CONSTRUCTION
 10
7.086031
 20
12.420253
 40
0.132356
 50
50.977916
 51
129.022283
  0
ARC
  8
CONSTRUCTION
 10
7.111696
 20
12.386968
 40
0.174378
 50
128.687897
 51
231.311964
  0
ARC
  8
CONSTRUCTION
 10
7.103904
 20
12.37523
 40
0.16035
 50
230.8638
 51
259.5859
  0
LINE
  8
CONSTRUCTION
 10
6.747891
 11
6.747891
 20
12.702613
 21
12.677613
  0
LINE
  8
CONSTRUCTION
 10
6.747891
 11
6.722891
 20
12.677613
 21
12.677613
  0
LINE
  8
CONSTRUCTION
 10
6.722891
 11
6.722891
 20
12.677613
 21
12.702613
  0
LINE
  8
CONSTRUCTION
 10
6.722891
 11
6.782891
 20
12.702613
 21
12.702613
  0
LINE
  8
CONSTRUCTION
 10
6.782891
 11
6.817891
 20
12.702613
 21
12.697613
  0
LINE
  8
CONSTRUCTION
 10
6.817891
 11
6.842891
 20
12.697613
 21
12.687613
  0
LINE
  8
CONSTRUCTION
 10
6.748326
 11
6.748326
 20
12.824064
 21
12.799064
  0
LINE
  8
CONSTRUCTION
 10
6.748326
 11
6.723326
 20
12.799064
 21
12.799064
  0
LINE
  8
CONSTRUCTION
 10
6.723326
 11
6.723326
 20
12.799064
 21
12.824064
  0
LINE
  8
CONSTRUCTION
 10
6.723326
 11
6.783326
 20
12.824064
 21
12.824064
  0
LINE
  8
CONSTRUCTION
 10
6.783326
 11
6.818326
 20
12.824064
 21
12.819064
  0
LINE
  8
CONSTRUCTION
 10
6.818326
 11
6.843326
 20
12.819064
 21
12.809064
  0
LINE
  8
CONSTRUCTION
 10
8.579508
 11
8.665289
 20
9.701602
 21
9.701602
  0
LINE
  8
CONSTRUCTION
 10
8.665289
 11
8.751071
 20
9.701602
 21
9.701602
  0
LINE
  8
CONSTRUCTION
 10
8.665289
 11
8.665289
 20
9.701602
 21
10.201602
  0
LINE
  8
CONSTRUCTION
 10
8.665289
 11
8.579508
 20
10.201602
 21
10.11582
  0
LINE
  8
CONSTRUCTION
 10
8.851071
 11
8.936852
 20
9.701602
 21
9.701602
  0
LINE
  8
CONSTRUCTION
 10
8.936852
 11
9.022633
 20
9.701602
 21
9.701602
  0
LINE
  8
CONSTRUCTION
 10
8.936852
 11
8.936852
 20
9.701602
 21
10.201602
  0
LINE
  8
CONSTRUCTION
 10
8.936852
 11
8.851071
 20
10.201602
 21
10.11582
  0
CIRCLE
  8
CONSTRUCTION
 10
9.17178
 20
9.751791
 40
0.05
  0
LINE
  8
CONSTRUCTION
 10
9.754255
 11
9.337588
 20
9.86844
 21
9.86844
  0
LINE
  8
CONSTRUCTION
 10
9.337588
 11
9.337588
 20
9.86844
 21
9.896218
  0
LINE
  8
CONSTRUCTION
 10
9.337588
 11
9.615366
 20
9.896218
 21
10.201773
  0
LINE
  8
CONSTRUCTION
 10
9.615366
 11
9.643143
 20
10.201773
 21
10.201773
  0
LINE
  8
CONSTRUCTION
 10
9.643143
 11
9.643143
 20
10.201773
 21
9.701773
  0
ARC
  8
CONSTRUCTION
 10
9.998187
 20
9.859101
 40
0.1637
 50
218.687092
 51
321.311843
  0
ARC
  8
CONSTRUCTION
 10
9.889453
 20
9.94844
 40
0.304422
 50
320.979262
 51
39.021887
  0
ARC
  8
CONSTRUCTION
 10
9.998183
 20
10.037783
 40
0.1637
 50
38.688216
 51
141.311676
  0
ARC
  8
CONSTRUCTION
 10
9.973233
 20
10.056776
 40
0.132356
 50
140.977916
 51
219.022283
  0
ARC
  8
CONSTRUCTION
 10
10.006519
 20
10.082441
 40
0.174378
 50
218.687897
 51
321.311964
  0
ARC
  8
CONSTRUCTION
 10
10.018256
 20
10.074649
 40
0.16035
 50
320.8638
 51
349.5859
  0
ARC
  8
CONSTRUCTION
 10
10.442379
 20
9.861497
 40
0.155906
 50
208.751948
 51
258.48402
  0
ARC
  8
CONSTRUCTION
 10
10.475413
 20
10.004439
 40
0.302589
 50
257.758312
 51
286.480382
  0
ARC
  8
CONSTRUCTION
 10
10.522364
 20
9.850939
 40
0.142083
 50
285.885172
 51
325.197039
  0
ARC
  8
CONSTRUCTION
 10
10.523477
 20
9.851847
 40
0.141694
 50
324.638795
 51
31.268726
  0
ARC
  8
CONSTRUCTION
 10
10.518757
 20
9.850218
 40
0.146578
 50
30.855291
 51
75.402309
  0
ARC
  8
CONSTRUCTION
 10
10.489032
 20
9.73168
 40
0.268783
 50
75.6389
 51
104.3611
  0
ARC
  8
CONSTRUCTION
 10
10.323427
 20
10.278297
 40
0.30285
 50
289.068075
 51
345.63788
  0
LINE
  8
CONSTRUCTION
 10
10.616812
 11
10.311255
 20
10.203175
 21
10.203174
  0
LINE
  8
CONSTRUCTION
 10
10.806977
 11
10.781977
 20
10.179127
 21
10.179127
  0
LINE
  8
CONSTRUCTION
 10
10.781977
 11
10.781977
 20
10.179127
 21
10.204127
  0
LINE
  8
CONSTRUCTION
 10
10.781977
 11
10.806977
 20
10.204127
 21
10.204127
  0
LINE
  8
CONSTRUCTION
 10
10.806977
 11
10.806977
 20
10.204127
 21
10.144127
  0
LINE
  8
CONSTRUCTION
 10
10.806977
 11
10.801977
 20
10.144127
 21
10.109127
  0
LINE
  8
CONSTRUCTION
 10
10.801977
 11
10.791977
 20
10.109127
 21
10.084127
  0
LINE
  8
CONSTRUCTION
 10
10.928427
 11
10.903427
 20
10.178693
 21
10.178693
  0
LINE
  8
CONSTRUCTION
 10
10.903427
 11
10.903427
 20
10.178693
 21
10.203693
  0
LINE
  8
CONSTRUCTION
 10
10.903427
 11
10.928427
 20
10.203693
 21
10.203693
  0
LINE
  8
CONSTRUCTION
 10
10.928427
 11
10.928427
 20
10.203693
 21
10.143693
  0
LINE
  8
CONSTRUCTION
 10
10.928427
 11
10.923427
 20
10.143693
 21
10.108693
  0
LINE
  8
CONSTRUCTION
 10
10.923427
 11
10.913427
 20
10.108693
 21
10.083693
  0
LINE
  8
APS_GEOMETRY
 10
1.24619
 11
3.663902
 20
9.929185
 21
9.929185
  0
LINE
  8
APS_GEOMETRY
 10
3.663902
 11
7.012759
 20
9.929185
 21
9.929409
  0
TEXT
  8
TEXT
 10
1.438026
 20
12.910913
 30
0.0
 40
1.0
 50
0.0
  1
KARRAN
  0
TEXT
  8
TEXT
 10
1.438026
 20
11.410913
 30
0.0
 40
1.0
 50
0.0
  1

  0
TEXT
  8
TEXT
 10
1.533644
 20
8.392824
 30
0.0
 40
0.5
 50
0.0
  1
Please check 
  0
TEXT
  8
TEXT
 10
1.481715
 20
7.645008
 30
0.0
 40
0.5
 50
0.0
  1
tem
  0
TEXT
  8
TEXT
 10
2.478082
 20
7.645008
 30
0.0
 40
0.5
 50
0.0
  1
p
  0
TEXT
  8
TEXT
 10
2.759342
 20
7.645008
 30
0.0
 40
0.5
 50
0.0
  1
late
  0
TEXT
  8
TEXT
 10
4.125389
 20
7.642824
 30
0.0
 40
0.5
 50
0.0
  1
with 
  0
TEXT
  8
TEXT
 10
5.726416
 20
7.642824
 30
0.0
 40
0.5
 50
0.0
  1
sink 
  0
TEXT
  8
TEXT
 10
1.503377
 20
6.886896
 30
0.0
 40
0.5
 50
0.0
  1
for
  0
TEXT
  8
TEXT
 10
2.559514
 20
6.913353
 30
0.0
 40
0.5
 50
0.0
  1
accuracy
  0
TEXT
  8
TEXT
 10
7.387162
 20
8.405344
 30
0.0
 40
0.5
 50
0.0
  1
Template line is
  0
TEXT
  8
TEXT
 10
7.387162
 20
7.655344
 30
0.0
 40
0.5
 50
0.0
  1
inside perimeter
  0
TEXT
  8
TEXT
 10
7.387162
 20
6.905344
 30
0.0
 40
0.5
 50
0.0
  1
of sink
  0
TEXT
  8
TEXT
 10
7.387162
 20
6.155344
 30
0.0
 40
0.5
 50
0.0
  1

  0
TEXT
  8
TEXT
 10
2.047541
 20
11.346545
 30
0.0
 40
1.0
 50
0.0
  1
A-315
  0
TEXT
  8
TEXT
 10
2.047541
 20
9.846545
 30
0.0
 40
1.0
 50
0.0
  1

  0
ENDSEC
  0
EOF
