  0
SECTION
  2
HEADER
  9
$ACADVER
  1
AC1027
  9
$ACADMAINTVER
 70
   105
  9
$DWGCODEPAGE
  3
ANSI_1252
  9
$REQUIREDVERSIONS
160
                 0
  9
$COMMENTS
  1
File was created by Mastercam 2017
  9
$INSBASE
 10
0.0
 20
0.0
 30
0.0
  9
$EXTMIN
 10
-17.31195908783541
 20
-1.320293346323315
 30
0.0
  9
$EXTMAX
 10
15.02521667129089
 20
19.7336912264559
 30
0.0
  9
$LIMMIN
 10
0.0
 20
0.0
  9
$LIMMAX
 10
12.0
 20
9.0
  9
$ORTHOMODE
 70
     0
  9
$REGENMODE
 70
     1
  9
$FILLMODE
 70
     1
  9
$QTEXTMODE
 70
     0
  9
$MIRRTEXT
 70
     1
  9
$LTSCALE
 40
1.0
  9
$ATTMODE
 70
     1
  9
$TEXTSIZE
 40
0.2
  9
$TRACEWID
 40
0.05
  9
$TEXTSTYLE
  7
Standard
  9
$CLAYER
  8
0
  9
$CELTYPE
  6
ByLayer
  9
$CECOLOR
 62
   256
  9
$CELTSCALE
 40
1.0
  9
$DISPSILH
 70
     0
  9
$DIMSCALE
 40
1.0
  9
$DIMASZ
 40
0.18
  9
$DIMEXO
 40
0.0625
  9
$DIMDLI
 40
0.38
  9
$DIMRND
 40
0.0
  9
$DIMDLE
 40
0.0
  9
$DIMEXE
 40
0.18
  9
$DIMTP
 40
0.0
  9
$DIMTM
 40
0.0
  9
$DIMTXT
 40
0.18
  9
$DIMCEN
 40
0.09
  9
$DIMTSZ
 40
0.0
  9
$DIMTOL
 70
     0
  9
$DIMLIM
 70
     0
  9
$DIMTIH
 70
     1
  9
$DIMTOH
 70
     1
  9
$DIMSE1
 70
     0
  9
$DIMSE2
 70
     0
  9
$DIMTAD
 70
     0
  9
$DIMZIN
 70
     0
  9
$DIMBLK
  1

  9
$DIMASO
 70
     1
  9
$DIMSHO
 70
     1
  9
$DIMPOST
  1

  9
$DIMAPOST
  1

  9
$DIMALT
 70
     0
  9
$DIMALTD
 70
     2
  9
$DIMALTF
 40
25.4
  9
$DIMLFAC
 40
1.0
  9
$DIMTOFL
 70
     0
  9
$DIMTVP
 40
0.0
  9
$DIMTIX
 70
     0
  9
$DIMSOXD
 70
     0
  9
$DIMSAH
 70
     0
  9
$DIMBLK1
  1

  9
$DIMBLK2
  1

  9
$DIMSTYLE
  2
Standard
  9
$DIMCLRD
 70
     0
  9
$DIMCLRE
 70
     0
  9
$DIMCLRT
 70
     0
  9
$DIMTFAC
 40
1.0
  9
$DIMGAP
 40
0.09
  9
$DIMJUST
 70
     0
  9
$DIMSD1
 70
     0
  9
$DIMSD2
 70
     0
  9
$DIMTOLJ
 70
     1
  9
$DIMTZIN
 70
     0
  9
$DIMALTZ
 70
     0
  9
$DIMALTTZ
 70
     0
  9
$DIMUPT
 70
     0
  9
$DIMDEC
 70
     4
  9
$DIMTDEC
 70
     4
  9
$DIMALTU
 70
     2
  9
$DIMALTTD
 70
     2
  9
$DIMTXSTY
  7
Standard
  9
$DIMAUNIT
 70
     0
  9
$DIMADEC
 70
     0
  9
$DIMALTRND
 40
0.0
  9
$DIMAZIN
 70
     0
  9
$DIMDSEP
 70
    46
  9
$DIMATFIT
 70
     3
  9
$DIMFRAC
 70
     0
  9
$DIMLDRBLK
  1

  9
$DIMLUNIT
 70
     2
  9
$DIMLWD
 70
    -2
  9
$DIMLWE
 70
    -2
  9
$DIMTMOVE
 70
     0
  9
$DIMFXL
 40
1.0
  9
$DIMFXLON
 70
     0
  9
$DIMJOGANG
 40
0.7853981633974483
  9
$DIMTFILL
 70
     0
  9
$DIMTFILLCLR
 70
     0
  9
$DIMARCSYM
 70
     0
  9
$DIMLTYPE
  6

  9
$DIMLTEX1
  6

  9
$DIMLTEX2
  6

  9
$DIMTXTDIRECTION
 70
     0
  9
$LUNITS
 70
     2
  9
$LUPREC
 70
     4
  9
$SKETCHINC
 40
0.1
  9
$FILLETRAD
 40
0.5
  9
$AUNITS
 70
     0
  9
$AUPREC
 70
     0
  9
$MENU
  1
.
  9
$ELEVATION
 40
0.0
  9
$PELEVATION
 40
0.0
  9
$THICKNESS
 40
0.0
  9
$LIMCHECK
 70
     0
  9
$CHAMFERA
 40
0.0
  9
$CHAMFERB
 40
0.0
  9
$CHAMFERC
 40
0.0
  9
$CHAMFERD
 40
0.0
  9
$SKPOLY
 70
     0
  9
$TDCREATE
 40
2453737.5
  9
$TDUCREATE
 40
2453737.708333333
  9
$TDUPDATE
 40
2459193.538629954
  9
$TDUUPDATE
 40
2459193.746963287
  9
$TDINDWG
 40
0.0000000116
  9
$TDUSRTIMER
 40
0.0000000116
  9
$USRTIMER
 70
     1
  9
$ANGBASE
 50
0.0
  9
$ANGDIR
 70
     0
  9
$PDMODE
 70
     2
  9
$PDSIZE
 40
0.1
  9
$PLINEWID
 40
0.0
  9
$SPLFRAME
 70
     0
  9
$SPLINETYPE
 70
     6
  9
$SPLINESEGS
 70
     8
  9
$HANDSEED
  5
F3
  9
$SURFTAB1
 70
     6
  9
$SURFTAB2
 70
     6
  9
$SURFTYPE
 70
     6
  9
$SURFU
 70
     6
  9
$SURFV
 70
     6
  9
$UCSBASE
  2

  9
$UCSNAME
  2

  9
$UCSORG
 10
0.0
 20
0.0
 30
0.0
  9
$UCSXDIR
 10
1.0
 20
0.0
 30
0.0
  9
$UCSYDIR
 10
0.0
 20
1.0
 30
0.0
  9
$UCSORTHOREF
  2

  9
$UCSORTHOVIEW
 70
     0
  9
$UCSORGTOP
 10
0.0
 20
0.0
 30
0.0
  9
$UCSORGBOTTOM
 10
0.0
 20
0.0
 30
0.0
  9
$UCSORGLEFT
 10
0.0
 20
0.0
 30
0.0
  9
$UCSORGRIGHT
 10
0.0
 20
0.0
 30
0.0
  9
$UCSORGFRONT
 10
0.0
 20
0.0
 30
0.0
  9
$UCSORGBACK
 10
0.0
 20
0.0
 30
0.0
  9
$PUCSBASE
  2

  9
$PUCSNAME
  2

  9
$PUCSORG
 10
0.0
 20
0.0
 30
0.0
  9
$PUCSXDIR
 10
1.0
 20
0.0
 30
0.0
  9
$PUCSYDIR
 10
0.0
 20
1.0
 30
0.0
  9
$PUCSORTHOREF
  2

  9
$PUCSORTHOVIEW
 70
     0
  9
$PUCSORGTOP
 10
0.0
 20
0.0
 30
0.0
  9
$PUCSORGBOTTOM
 10
0.0
 20
0.0
 30
0.0
  9
$PUCSORGLEFT
 10
0.0
 20
0.0
 30
0.0
  9
$PUCSORGRIGHT
 10
0.0
 20
0.0
 30
0.0
  9
$PUCSORGFRONT
 10
0.0
 20
0.0
 30
0.0
  9
$PUCSORGBACK
 10
0.0
 20
0.0
 30
0.0
  9
$USERI1
 70
     0
  9
$USERI2
 70
     0
  9
$USERI3
 70
     0
  9
$USERI4
 70
     0
  9
$USERI5
 70
     0
  9
$USERR1
 40
0.0
  9
$USERR2
 40
0.0
  9
$USERR3
 40
0.0
  9
$USERR4
 40
0.0
  9
$USERR5
 40
0.0
  9
$WORLDVIEW
 70
     1
  9
$SHADEDGE
 70
     3
  9
$SHADEDIF
 70
    70
  9
$TILEMODE
 70
     1
  9
$MAXACTVP
 70
    64
  9
$PINSBASE
 10
0.0
 20
0.0
 30
0.0
  9
$PLIMCHECK
 70
     0
  9
$PEXTMIN
 10
0.0
 20
0.0
 30
0.0
  9
$PEXTMAX
 10
0.0
 20
0.0
 30
0.0
  9
$PLIMMIN
 10
-0.25
 20
-0.25
  9
$PLIMMAX
 10
10.75
 20
8.25
  9
$UNITMODE
 70
     0
  9
$VISRETAIN
 70
     1
  9
$PLINEGEN
 70
     0
  9
$PSLTSCALE
 70
     1
  9
$TREEDEPTH
 70
  3020
  9
$CMLSTYLE
  2
Standard
  9
$CMLJUST
 70
     0
  9
$CMLSCALE
 40
1.0
  9
$PROXYGRAPHICS
 70
     1
  9
$MEASUREMENT
 70
     0
  9
$CELWEIGHT
370
    -1
  9
$ENDCAPS
280
     0
  9
$JOINSTYLE
280
     0
  9
$LWDISPLAY
290
     0
  9
$INSUNITS
 70
     1
  9
$HYPERLINKBASE
  1

  9
$STYLESHEET
  1

  9
$XEDIT
290
     1
  9
$CEPSNTYPE
380
     0
  9
$PSTYLEMODE
290
     1
  9
$FINGERPRINTGUID
  2
{331B50BB-69C3-42ED-AF32-3B621EA81193}
  9
$VERSIONGUID
  2
{FAEB1C32-E019-11D5-929B-00C0DF256EC4}
  9
$EXTNAMES
290
     1
  9
$PSVPSCALE
 40
0.0
  9
$OLESTARTUP
290
     0
  9
$SORTENTS
280
   127
  9
$INDEXCTL
280
     0
  9
$HIDETEXT
280
     1
  9
$XCLIPFRAME
280
     2
  9
$HALOGAP
280
     0
  9
$OBSCOLOR
 70
   257
  9
$OBSLTYPE
280
     0
  9
$INTERSECTIONDISPLAY
280
     0
  9
$INTERSECTIONCOLOR
 70
   257
  9
$DIMASSOC
280
     2
  9
$PROJECTNAME
  1

  9
$CAMERADISPLAY
290
     0
  9
$LENSLENGTH
 40
50.0
  9
$CAMERAHEIGHT
 40
0.0
  9
$STEPSPERSEC
 40
2.0
  9
$STEPSIZE
 40
6.0
  9
$3DDWFPREC
 40
2.0
  9
$PSOLWIDTH
 40
0.25
  9
$PSOLHEIGHT
 40
4.0
  9
$LOFTANG1
 40
1.570796326794897
  9
$LOFTANG2
 40
1.570796326794897
  9
$LOFTMAG1
 40
0.0
  9
$LOFTMAG2
 40
0.0
  9
$LOFTPARAM
 70
     7
  9
$LOFTNORMALS
280
     1
  9
$LATITUDE
 40
37.795
  9
$LONGITUDE
 40
-122.394
  9
$NORTHDIRECTION
 40
0.0
  9
$TIMEZONE
 70
 -8000
  9
$LIGHTGLYPHDISPLAY
280
     1
  9
$TILEMODELIGHTSYNCH
280
     1
  9
$CMATERIAL
347
44
  9
$SOLIDHIST
280
     0
  9
$SHOWHIST
280
     1
  9
$DWFFRAME
280
     2
  9
$DGNFRAME
280
     2
  9
$REALWORLDSCALE
290
     1
  9
$INTERFERECOLOR
 62
   256
  9
$CSHADOW
280
     0
  9
$SHADOWPLANELOCATION
 40
0.0
  0
ENDSEC
  0
SECTION
  2
CLASSES
  0
CLASS
  1
ACDBDICTIONARYWDFLT
  2
AcDbDictionaryWithDefault
  3
ObjectDBX Classes
 90
        0
 91
        4
280
     0
281
     0
  0
CLASS
  1
VISUALSTYLE
  2
AcDbVisualStyle
  3
ObjectDBX Classes
 90
     4095
 91
        4
280
     0
281
     0
  0
CLASS
  1
MATERIAL
  2
AcDbMaterial
  3
ObjectDBX Classes
 90
     1153
 91
        4
280
     0
281
     0
  0
CLASS
  1
SCALE
  2
AcDbScale
  3
ObjectDBX Classes
 90
     1153
 91
        4
280
     0
281
     0
  0
CLASS
  1
TABLESTYLE
  2
AcDbTableStyle
  3
ObjectDBX Classes
 90
     4095
 91
        4
280
     0
281
     0
  0
CLASS
  1
MLEADERSTYLE
  2
AcDbMLeaderStyle
  3
ACDB_MLEADERSTYLE_CLASS
 90
     4095
 91
        4
280
     0
281
     0
  0
CLASS
  1
SUN
  2
AcDbSun
  3
SCENEOE
 90
     1153
 91
        4
280
     0
281
     0
  0
CLASS
  1
DICTIONARYVAR
  2
AcDbDictionaryVar
  3
ObjectDBX Classes
 90
        0
 91
        4
280
     0
281
     0
  0
CLASS
  1
CELLSTYLEMAP
  2
AcDbCellStyleMap
  3
ObjectDBX Classes
 90
     1152
 91
        4
280
     0
281
     0
  0
ENDSEC
  0
SECTION
  2
TABLES
  0
TABLE
  2
VPORT
  5
8
330
0
100
AcDbSymbolTable
 70
     1
  0
VPORT
  5
29
330
8
100
AcDbSymbolTableRecord
100
AcDbViewportTableRecord
  2
*Active
 70
     0
 10
0.0
 20
0.0
 11
1.0
 21
1.0
 12
10.42990654205607
 22
4.5
 13
0.0
 23
0.0
 14
0.5
 24
0.5
 15
0.5
 25
0.5
 16
0.0
 26
0.0
 36
1.0
 17
0.0
 27
0.0
 37
0.0
 40
9.0
 41
1.972972972850329
 42
50.0
 43
0.0
 44
0.0
 50
0.0
 51
0.0
 71
     0
 72
   100
 73
     1
 74
     3
 75
     0
 76
     0
 77
     0
 78
     0
281
     0
 65
     1
110
0.0
120
0.0
130
0.0
111
1.0
121
0.0
131
0.0
112
0.0
122
1.0
132
0.0
 79
     0
146
0.0
348
2F
 60
     3
 61
     5
292
     1
282
     1
141
0.0
142
0.0
 63
   250
361
6D
  0
ENDTAB
  0
TABLE
  2
LTYPE
  5
5
330
0
100
AcDbSymbolTable
 70
     5
  0
LTYPE
  5
14
330
5
100
AcDbSymbolTableRecord
100
AcDbLinetypeTableRecord
  2
ByBlock
 70
     0
  3

 72
    65
 73
     0
 40
0.0
  0
LTYPE
  5
15
330
5
100
AcDbSymbolTableRecord
100
AcDbLinetypeTableRecord
  2
ByLayer
 70
     0
  3

 72
    65
 73
     0
 40
0.0
  0
LTYPE
  5
16
330
5
100
AcDbSymbolTableRecord
100
AcDbLinetypeTableRecord
  2
Continuous
 70
     0
  3
Solid line
 72
    65
 73
     0
 40
0.0
  0
LTYPE
  5
6F
330
5
100
AcDbSymbolTableRecord
100
AcDbLinetypeTableRecord
  2
Continuous2
 70
     0
  3
Solid Line
 72
    65
 73
     0
 40
0.0
  0
LTYPE
  5
70
330
5
100
AcDbSymbolTableRecord
100
AcDbLinetypeTableRecord
  2
DASHED
 70
     0
  3
__ __ __ __ __ __ __ __ __ __ __ __ __ __ __ __
 72
    83
 73
     2
 40
0.5
 49
0.375
 74
     0
 49
-0.125
 74
     0
  0
LTYPE
  5
71
330
5
100
AcDbSymbolTableRecord
100
AcDbLinetypeTableRecord
  2
CENTER
 70
     0
  3
____ _ ____ _ ____ _ ____ _ ____ _ ____ _ ____ _
 72
    83
 73
     4
 40
1.0
 49
0.625
 74
     0
 49
-0.125
 74
     0
 49
0.125
 74
     0
 49
-0.125
 74
     0
  0
LTYPE
  5
72
330
5
100
AcDbSymbolTableRecord
100
AcDbLinetypeTableRecord
  2
PHANTOM
 70
     0
  3
___ _ _ ___ _ _ ___ _ _ ___ _ _ ___ _ _ ___ _ _ 
 72
    83
 73
     6
 40
1.0
 49
0.5
 74
     0
 49
-0.1
 74
     0
 49
0.1
 74
     0
 49
-0.1
 74
     0
 49
0.1
 74
     0
 49
-0.1
 74
     0
  0
ENDTAB
  0
TABLE
  2
LAYER
  5
2
330
0
100
AcDbSymbolTable
 70
     4
  0
LAYER
  5
10
330
2
100
AcDbSymbolTableRecord
100
AcDbLayerTableRecord
  2
0
 70
     0
 62
     7
  6
Continuous
370
    -3
390
F
347
46
348
0
  0
LAYER
  5
73
330
2
100
AcDbSymbolTableRecord
100
AcDbLayerTableRecord
  2
PROBED POINTS
 70
     0
 62
     1
  6
Continuous
370
    -3
390
F
347
46
348
0
  0
LAYER
  5
74
330
2
100
AcDbSymbolTableRecord
100
AcDbLayerTableRecord
  2
LINES & ARCS PROFILES
 70
     0
 62
     1
  6
Continuous
370
    -3
390
F
347
46
348
0
  0
LAYER
  5
75
330
2
100
AcDbSymbolTableRecord
100
AcDbLayerTableRecord
  2
SPLINE PROFILES
 70
     0
 62
     1
  6
Continuous
370
    -3
390
F
347
46
348
0
  0
ENDTAB
  0
TABLE
  2
STYLE
  5
3
330
0
100
AcDbSymbolTable
 70
     2
  0
STYLE
  5
11
330
3
100
AcDbSymbolTableRecord
100
AcDbTextStyleTableRecord
  2
Standard
 70
     0
 40
0.0
 41
1.0
 50
0.0
 71
     0
 42
0.2
  3
txt
  4

  0
STYLE
  5
77
330
3
100
AcDbSymbolTableRecord
100
AcDbTextStyleTableRecord
  2
MCStick_A0.000100_S0.000000
 70
     0
 40
0.0
 41
0.0001
 50
0.0
 71
     0
 42
0.2
  3
Simplex
  4

  0
ENDTAB
  0
TABLE
  2
VIEW
  5
6
330
0
100
AcDbSymbolTable
 70
     0
  0
ENDTAB
  0
TABLE
  2
UCS
  5
7
330
0
100
AcDbSymbolTable
 70
     0
  0
ENDTAB
  0
TABLE
  2
APPID
  5
9
330
0
100
AcDbSymbolTable
 70
     2
  0
APPID
  5
12
330
9
100
AcDbSymbolTableRecord
100
AcDbRegAppTableRecord
  2
ACAD
 70
     0
  0
APPID
  5
6E
330
9
100
AcDbSymbolTableRecord
100
AcDbRegAppTableRecord
  2
Mastercam 2017
 70
     0
  0
ENDTAB
  0
TABLE
  2
DIMSTYLE
  5
A
330
0
100
AcDbSymbolTable
 70
     1
100
AcDbDimStyleTable
  0
DIMSTYLE
105
27
330
A
100
AcDbSymbolTableRecord
100
AcDbDimStyleTableRecord
  2
Standard
 70
     0
178
     0
340
11
  0
ENDTAB
  0
TABLE
  2
BLOCK_RECORD
  5
1
330
0
100
AcDbSymbolTable
 70
     1
  0
BLOCK_RECORD
  5
1F
330
1
100
AcDbSymbolTableRecord
100
AcDbBlockTableRecord
  2
*Model_Space
340
22
 70
     0
280
     1
281
     0
  0
BLOCK_RECORD
  5
23
330
1
100
AcDbSymbolTableRecord
100
AcDbBlockTableRecord
  2
*Paper_Space
340
26
 70
     0
280
     1
281
     0
  0
ENDTAB
  0
ENDSEC
  0
SECTION
  2
BLOCKS
  0
BLOCK
  5
20
330
1F
100
AcDbEntity
  8
0
100
AcDbBlockBegin
  2
*Model_Space
 70
     0
 10
0.0
 20
0.0
 30
0.0
  3
*Model_Space
  1

  0
ENDBLK
  5
21
330
1F
100
AcDbEntity
  8
0
100
AcDbBlockEnd
  0
BLOCK
  5
24
330
23
100
AcDbEntity
 67
     1
  8
0
100
AcDbBlockBegin
  2
*Paper_Space
 70
     0
 10
0.0
 20
0.0
 30
0.0
  3
*Paper_Space
  1

  0
ENDBLK
  5
25
330
23
100
AcDbEntity
 67
     1
  8
0
100
AcDbBlockEnd
  0
ENDSEC
  0
SECTION
  2
ENTITIES
  0
TEXT
  5
76
330
1F
100
AcDbEntity
  8
0
  6
Continuous2
 62
   178
420
       51
 60
     1
370
    50
100
AcDbText
 10
0.0
 20
0.0
 30
0.0
 40
0.0001
  1
<!VSX>^C
 41
0.0001
  7
MCStick_A0.000100_S0.000000
100
AcDbText
  0
POINT
  5
78
330
1F
100
AcDbEntity
  8
PROBED POINTS
  6
Continuous2
 62
     3
420
    65280
370
    -3
100
AcDbPoint
 10
0.0253644277131742
 20
15.73797675519928
 30
0.0
  0
POINT
  5
79
330
1F
100
AcDbEntity
  8
PROBED POINTS
  6
Continuous2
 62
     3
420
    65280
370
    -3
100
AcDbPoint
 10
-7.338129901421215
 20
18.33828373438719
 30
0.0
  0
POINT
  5
7A
330
1F
100
AcDbEntity
  8
PROBED POINTS
  6
Continuous2
 62
     3
420
    65280
370
    -3
100
AcDbPoint
 10
-3.908452443318176
 20
18.33277261671867
 30
0.0
  0
POINT
  5
7B
330
1F
100
AcDbEntity
  8
PROBED POINTS
  6
Continuous2
 62
     3
420
    65280
370
    -3
100
AcDbPoint
 10
-3.049201141297148
 20
18.10051954836052
 30
0.0
  0
POINT
  5
7C
330
1F
100
AcDbEntity
  8
PROBED POINTS
  6
Continuous2
 62
     3
420
    65280
370
    -3
100
AcDbPoint
 10
-2.752963100358713
 20
17.93570207522429
 30
0.0
  0
POINT
  5
7D
330
1F
100
AcDbEntity
  8
PROBED POINTS
  6
Continuous2
 62
     3
420
    65280
370
    -3
100
AcDbPoint
 10
-4.743488317563513
 20
18.35550973242121
 30
0.0
  0
POINT
  5
7E
330
1F
100
AcDbEntity
  8
PROBED POINTS
  6
Continuous2
 62
     3
420
    65280
370
    -3
100
AcDbPoint
 10
-2.270292885994577
 20
17.51593217999526
 30
0.0
  0
POINT
  5
7F
330
1F
100
AcDbEntity
  8
PROBED POINTS
  6
Continuous2
 62
     3
420
    65280
370
    -3
100
AcDbPoint
 10
-1.103884681782701
 20
15.97573087002081
 30
0.0
  0
POINT
  5
80
330
1F
100
AcDbEntity
  8
PROBED POINTS
  6
Continuous2
 62
     3
420
    65280
370
    -3
100
AcDbPoint
 10
-0.8507020921471008
 20
15.84721016203927
 30
0.0
  0
POINT
  5
81
330
1F
100
AcDbEntity
  8
PROBED POINTS
  6
Continuous2
 62
     3
420
    65280
370
    -3
100
AcDbPoint
 10
-0.6059732659585961
 20
15.77593216394323
 30
0.0
  0
POINT
  5
82
330
1F
100
AcDbEntity
  8
PROBED POINTS
  6
Continuous2
 62
     3
420
    65280
370
    -3
100
AcDbPoint
 10
-0.1839627712389009
 20
15.73557649592403
 30
0.0
  0
POINT
  5
83
330
1F
100
AcDbEntity
  8
PROBED POINTS
  6
Continuous2
 62
     3
420
    65280
370
    -3
100
AcDbPoint
 10
0.4586629958656935
 20
15.72448679561531
 30
0.0
  0
POINT
  5
84
330
1F
100
AcDbEntity
  8
PROBED POINTS
  6
Continuous2
 62
     3
420
    65280
370
    -3
100
AcDbPoint
 10
1.473759370000975
 20
15.71980941516963
 30
0.0
  0
POINT
  5
85
330
1F
100
AcDbEntity
  8
PROBED POINTS
  6
Continuous2
 62
     3
420
    65280
370
    -3
100
AcDbPoint
 10
2.609276513848716
 20
15.73684640808241
 30
0.0
  0
POINT
  5
86
330
1F
100
AcDbEntity
  8
PROBED POINTS
  6
Continuous2
 62
     3
420
    65280
370
    -3
100
AcDbPoint
 10
3.927006235969399
 20
15.72202247912198
 30
0.0
  0
POINT
  5
87
330
1F
100
AcDbEntity
  8
PROBED POINTS
  6
Continuous2
 62
     3
420
    65280
370
    -3
100
AcDbPoint
 10
5.778195772580391
 20
15.71803674191099
 30
0.0
  0
POINT
  5
88
330
1F
100
AcDbEntity
  8
PROBED POINTS
  6
Continuous2
 62
     3
420
    65280
370
    -3
100
AcDbPoint
 10
7.631210381076096
 20
15.70759228120831
 30
0.0
  0
POINT
  5
89
330
1F
100
AcDbEntity
  8
PROBED POINTS
  6
Continuous2
 62
     3
420
    65280
370
    -3
100
AcDbPoint
 10
9.443781683474091
 20
15.70498780584681
 30
0.0
  0
POINT
  5
8A
330
1F
100
AcDbEntity
  8
PROBED POINTS
  6
Continuous2
 62
     3
420
    65280
370
    -3
100
AcDbPoint
 10
10.30031441288979
 20
15.69190256913805
 30
0.0
  0
POINT
  5
8B
330
1F
100
AcDbEntity
  8
PROBED POINTS
  6
Continuous2
 62
     3
420
    65280
370
    -3
100
AcDbPoint
 10
11.17106387050132
 20
15.67339570819874
 30
0.0
  0
POINT
  5
8C
330
1F
100
AcDbEntity
  8
PROBED POINTS
  6
Continuous2
 62
     3
420
    65280
370
    -3
100
AcDbPoint
 10
11.6606526339274
 20
15.58735506529867
 30
0.0
  0
POINT
  5
8D
330
1F
100
AcDbEntity
  8
PROBED POINTS
  6
Continuous2
 62
     3
420
    65280
370
    -3
100
AcDbPoint
 10
12.07218289292454
 20
15.43837175509256
 30
0.0
  0
POINT
  5
8E
330
1F
100
AcDbEntity
  8
PROBED POINTS
  6
Continuous2
 62
     3
420
    65280
370
    -3
100
AcDbPoint
 10
12.6113920603335
 20
15.09455841516023
 30
0.0
  0
POINT
  5
8F
330
1F
100
AcDbEntity
  8
PROBED POINTS
  6
Continuous2
 62
     3
420
    65280
370
    -3
100
AcDbPoint
 10
12.86821805334784
 20
14.85228824189022
 30
0.0
  0
POINT
  5
90
330
1F
100
AcDbEntity
  8
PROBED POINTS
  6
Continuous2
 62
     3
420
    65280
370
    -3
100
AcDbPoint
 10
13.14684544574829
 20
14.50252120756089
 30
0.0
  0
POINT
  5
91
330
1F
100
AcDbEntity
  8
PROBED POINTS
  6
Continuous2
 62
     3
420
    65280
370
    -3
100
AcDbPoint
 10
13.35957504729203
 20
14.12083969823648
 30
0.0
  0
POINT
  5
92
330
1F
100
AcDbEntity
  8
PROBED POINTS
  6
Continuous2
 62
     3
420
    65280
370
    -3
100
AcDbPoint
 10
13.51376603347996
 20
13.69786524184298
 30
0.0
  0
POINT
  5
93
330
1F
100
AcDbEntity
  8
PROBED POINTS
  6
Continuous2
 62
     3
420
    65280
370
    -3
100
AcDbPoint
 10
13.60280725745481
 20
13.08000776835327
 30
0.0
  0
POINT
  5
94
330
1F
100
AcDbEntity
  8
PROBED POINTS
  6
Continuous2
 62
     3
420
    65280
370
    -3
100
AcDbPoint
 10
13.62768751145043
 20
12.2712042075594
 30
0.0
  0
POINT
  5
95
330
1F
100
AcDbEntity
  8
PROBED POINTS
  6
Continuous2
 62
     3
420
    65280
370
    -3
100
AcDbPoint
 10
13.63489108413305
 20
9.736148096675095
 30
0.0
  0
POINT
  5
96
330
1F
100
AcDbEntity
  8
PROBED POINTS
  6
Continuous2
 62
     3
420
    65280
370
    -3
100
AcDbPoint
 10
13.64644268925864
 20
8.213652459911197
 30
0.0
  0
POINT
  5
97
330
1F
100
AcDbEntity
  8
PROBED POINTS
  6
Continuous2
 62
     3
420
    65280
370
    -3
100
AcDbPoint
 10
13.6413334237914
 20
6.630138747117407
 30
0.0
  0
POINT
  5
98
330
1F
100
AcDbEntity
  8
PROBED POINTS
  6
Continuous2
 62
     3
420
    65280
370
    -3
100
AcDbPoint
 10
13.64171615353038
 20
5.26987796085135
 30
0.0
  0
POINT
  5
99
330
1F
100
AcDbEntity
  8
PROBED POINTS
  6
Continuous2
 62
     3
420
    65280
370
    -3
100
AcDbPoint
 10
13.64426603415379
 20
4.015149888420993
 30
0.0
  0
POINT
  5
9A
330
1F
100
AcDbEntity
  8
PROBED POINTS
  6
Continuous2
 62
     3
420
    65280
370
    -3
100
AcDbPoint
 10
13.63155488929766
 20
2.679811787873529
 30
0.0
  0
POINT
  5
9B
330
1F
100
AcDbEntity
  8
PROBED POINTS
  6
Continuous2
 62
     3
420
    65280
370
    -3
100
AcDbPoint
 10
13.55529082876884
 20
2.104704901694316
 30
0.0
  0
POINT
  5
9C
330
1F
100
AcDbEntity
  8
PROBED POINTS
  6
Continuous2
 62
     3
420
    65280
370
    -3
100
AcDbPoint
 10
13.08254825924043
 20
1.096966488670876
 30
0.0
  0
POINT
  5
9D
330
1F
100
AcDbEntity
  8
PROBED POINTS
  6
Continuous2
 62
     3
420
    65280
370
    -3
100
AcDbPoint
 10
12.26867184882044
 20
0.3936905954307797
 30
0.0
  0
POINT
  5
9E
330
1F
100
AcDbEntity
  8
PROBED POINTS
  6
Continuous2
 62
     3
420
    65280
370
    -3
100
AcDbPoint
 10
11.42055533660048
 20
0.0973404954228485
 30
0.0
  0
POINT
  5
9F
330
1F
100
AcDbEntity
  8
PROBED POINTS
  6
Continuous2
 62
     3
420
    65280
370
    -3
100
AcDbPoint
 10
10.47376129506204
 20
0.057567864446483
 30
0.0
  0
POINT
  5
A0
330
1F
100
AcDbEntity
  8
PROBED POINTS
  6
Continuous2
 62
     3
420
    65280
370
    -3
100
AcDbPoint
 10
9.35716737485048
 20
0.0658564040967526
 30
0.0
  0
POINT
  5
A1
330
1F
100
AcDbEntity
  8
PROBED POINTS
  6
Continuous2
 62
     3
420
    65280
370
    -3
100
AcDbPoint
 10
7.880558719164572
 20
0.0777080249290272
 30
0.0
  0
POINT
  5
A2
330
1F
100
AcDbEntity
  8
PROBED POINTS
  6
Continuous2
 62
     3
420
    65280
370
    -3
100
AcDbPoint
 10
6.74130412844524
 20
0.0845710401032882
 30
0.0
  0
POINT
  5
A3
330
1F
100
AcDbEntity
  8
PROBED POINTS
  6
Continuous2
 62
     3
420
    65280
370
    -3
100
AcDbPoint
 10
5.176366316912091
 20
0.0941253092666408
 30
0.0
  0
POINT
  5
A4
330
1F
100
AcDbEntity
  8
PROBED POINTS
  6
Continuous2
 62
     3
420
    65280
370
    -3
100
AcDbPoint
 10
3.83861326713691
 20
0.1056586179710202
 30
0.0
  0
POINT
  5
A5
330
1F
100
AcDbEntity
  8
PROBED POINTS
  6
Continuous2
 62
     3
420
    65280
370
    -3
100
AcDbPoint
 10
2.312133629693325
 20
0.1167214548584106
 30
0.0
  0
POINT
  5
A6
330
1F
100
AcDbEntity
  8
PROBED POINTS
  6
Continuous2
 62
     3
420
    65280
370
    -3
100
AcDbPoint
 10
-1.263488671829863
 20
0.1389157125424454
 30
0.0
  0
POINT
  5
A7
330
1F
100
AcDbEntity
  8
PROBED POINTS
  6
Continuous2
 62
     3
420
    65280
370
    -3
100
AcDbPoint
 10
-4.726160384578717
 20
0.1319675321886677
 30
0.0
  0
POINT
  5
A8
330
1F
100
AcDbEntity
  8
PROBED POINTS
  6
Continuous2
 62
     3
420
    65280
370
    -3
100
AcDbPoint
 10
-6.42590889096242
 20
0.1227989105324099
 30
0.0
  0
POINT
  5
A9
330
1F
100
AcDbEntity
  8
PROBED POINTS
  6
Continuous2
 62
     3
420
    65280
370
    -3
100
AcDbPoint
 10
-8.773364598049044
 20
0.1094233882757614
 30
0.0
  0
POINT
  5
AA
330
1F
100
AcDbEntity
  8
PROBED POINTS
  6
Continuous2
 62
     3
420
    65280
370
    -3
100
AcDbPoint
 10
-10.20794906156685
 20
0.1042697673345785
 30
0.0
  0
POINT
  5
AB
330
1F
100
AcDbEntity
  8
PROBED POINTS
  6
Continuous2
 62
     3
420
    65280
370
    -3
100
AcDbPoint
 10
-12.15209809315838
 20
0.108025304056536
 30
0.0
  0
POINT
  5
AC
330
1F
100
AcDbEntity
  8
PROBED POINTS
  6
Continuous2
 62
     3
420
    65280
370
    -3
100
AcDbPoint
 10
-13.62739022839992
 20
0.1480019888554267
 30
0.0
  0
POINT
  5
AD
330
1F
100
AcDbEntity
  8
PROBED POINTS
  6
Continuous2
 62
     3
420
    65280
370
    -3
100
AcDbPoint
 10
-13.99884265071063
 20
0.227801466659681
 30
0.0
  0
POINT
  5
AE
330
1F
100
AcDbEntity
  8
PROBED POINTS
  6
Continuous2
 62
     3
420
    65280
370
    -3
100
AcDbPoint
 10
-14.38831714538557
 20
0.3771077564670975
 30
0.0
  0
POINT
  5
AF
330
1F
100
AcDbEntity
  8
PROBED POINTS
  6
Continuous2
 62
     3
420
    65280
370
    -3
100
AcDbPoint
 10
-14.76653782419575
 20
0.5976464980683538
 30
0.0
  0
POINT
  5
B0
330
1F
100
AcDbEntity
  8
PROBED POINTS
  6
Continuous2
 62
     3
420
    65280
370
    -3
100
AcDbPoint
 10
-15.13457205350359
 20
0.9008181454504047
 30
0.0
  0
POINT
  5
B1
330
1F
100
AcDbEntity
  8
PROBED POINTS
  6
Continuous2
 62
     3
420
    65280
370
    -3
100
AcDbPoint
 10
-15.47926209944469
 20
1.317478202893962
 30
0.0
  0
POINT
  5
B2
330
1F
100
AcDbEntity
  8
PROBED POINTS
  6
Continuous2
 62
     3
420
    65280
370
    -3
100
AcDbPoint
 10
-15.63744381154009
 20
1.595742590381406
 30
0.0
  0
POINT
  5
B3
330
1F
100
AcDbEntity
  8
PROBED POINTS
  6
Continuous2
 62
     3
420
    65280
370
    -3
100
AcDbPoint
 10
-15.83664316500708
 20
2.14036161415412
 30
0.0
  0
POINT
  5
B4
330
1F
100
AcDbEntity
  8
PROBED POINTS
  6
Continuous2
 62
     3
420
    65280
370
    -3
100
AcDbPoint
 10
-15.91970394583804
 20
2.698042934708916
 30
0.0
  0
POINT
  5
B5
330
1F
100
AcDbEntity
  8
PROBED POINTS
  6
Continuous2
 62
     3
420
    65280
370
    -3
100
AcDbPoint
 10
-15.93491357268505
 20
3.605404048303967
 30
0.0
  0
POINT
  5
B6
330
1F
100
AcDbEntity
  8
PROBED POINTS
  6
Continuous2
 62
     3
420
    65280
370
    -3
100
AcDbPoint
 10
-15.93320352671654
 20
4.75398529650283
 30
0.0
  0
POINT
  5
B7
330
1F
100
AcDbEntity
  8
PROBED POINTS
  6
Continuous2
 62
     3
420
    65280
370
    -3
100
AcDbPoint
 10
-15.93106289507517
 20
5.794335182697125
 30
0.0
  0
POINT
  5
B8
330
1F
100
AcDbEntity
  8
PROBED POINTS
  6
Continuous2
 62
     3
420
    65280
370
    -3
100
AcDbPoint
 10
-15.92340079918702
 20
6.974307569683912
 30
0.0
  0
POINT
  5
B9
330
1F
100
AcDbEntity
  8
PROBED POINTS
  6
Continuous2
 62
     3
420
    65280
370
    -3
100
AcDbPoint
 10
-15.91601472115977
 20
7.829971494922237
 30
0.0
  0
POINT
  5
BA
330
1F
100
AcDbEntity
  8
PROBED POINTS
  6
Continuous2
 62
     3
420
    65280
370
    -3
100
AcDbPoint
 10
-15.9035694624526
 20
11.01442609481157
 30
0.0
  0
POINT
  5
BB
330
1F
100
AcDbEntity
  8
PROBED POINTS
  6
Continuous2
 62
     3
420
    65280
370
    -3
100
AcDbPoint
 10
-15.89844585473167
 20
12.69510464609064
 30
0.0
  0
POINT
  5
BC
330
1F
100
AcDbEntity
  8
PROBED POINTS
  6
Continuous2
 62
     3
420
    65280
370
    -3
100
AcDbPoint
 10
-15.89112365914988
 20
14.48041825556456
 30
0.0
  0
POINT
  5
BD
330
1F
100
AcDbEntity
  8
PROBED POINTS
  6
Continuous2
 62
     3
420
    65280
370
    -3
100
AcDbPoint
 10
-15.87324020717534
 20
15.71234879330009
 30
0.0
  0
POINT
  5
BE
330
1F
100
AcDbEntity
  8
PROBED POINTS
  6
Continuous2
 62
     3
420
    65280
370
    -3
100
AcDbPoint
 10
-15.8289553533836
 20
16.09482347559196
 30
0.0
  0
POINT
  5
BF
330
1F
100
AcDbEntity
  8
PROBED POINTS
  6
Continuous2
 62
     3
420
    65280
370
    -3
100
AcDbPoint
 10
-15.71498237038354
 20
16.52089946622658
 30
0.0
  0
POINT
  5
C0
330
1F
100
AcDbEntity
  8
PROBED POINTS
  6
Continuous2
 62
     3
420
    65280
370
    -3
100
AcDbPoint
 10
-15.51694862690116
 20
16.94974388832804
 30
0.0
  0
POINT
  5
C1
330
1F
100
AcDbEntity
  8
PROBED POINTS
  6
Continuous2
 62
     3
420
    65280
370
    -3
100
AcDbPoint
 10
-15.19095574317987
 20
17.40698741224018
 30
0.0
  0
POINT
  5
C2
330
1F
100
AcDbEntity
  8
PROBED POINTS
  6
Continuous2
 62
     3
420
    65280
370
    -3
100
AcDbPoint
 10
-14.81629114332376
 20
17.76272121454173
 30
0.0
  0
POINT
  5
C3
330
1F
100
AcDbEntity
  8
PROBED POINTS
  6
Continuous2
 62
     3
420
    65280
370
    -3
100
AcDbPoint
 10
-14.22019576485389
 20
18.09596269250981
 30
0.0
  0
POINT
  5
C4
330
1F
100
AcDbEntity
  8
PROBED POINTS
  6
Continuous2
 62
     3
420
    65280
370
    -3
100
AcDbPoint
 10
-13.09180237502449
 20
18.31747000041068
 30
0.0
  0
POINT
  5
C5
330
1F
100
AcDbEntity
  8
PROBED POINTS
  6
Continuous2
 62
     3
420
    65280
370
    -3
100
AcDbPoint
 10
-11.78485084175874
 20
18.32109404887292
 30
0.0
  0
POINT
  5
C6
330
1F
100
AcDbEntity
  8
PROBED POINTS
  6
Continuous2
 62
     3
420
    65280
370
    -3
100
AcDbPoint
 10
-10.32157962271338
 20
18.32441069713129
 30
0.0
  0
POINT
  5
C7
330
1F
100
AcDbEntity
  8
PROBED POINTS
  6
Continuous2
 62
     3
420
    65280
370
    -3
100
AcDbPoint
 10
-8.685382867647089
 20
18.35807988198894
 30
0.0
  0
POINT
  5
C8
330
1F
100
AcDbEntity
  8
PROBED POINTS
  6
Continuous2
 62
     3
420
    65280
370
    -3
100
AcDbPoint
 10
-6.918399185758931
 20
18.3459723123014
 30
0.0
  0
POINT
  5
C9
330
1F
100
AcDbEntity
  8
PROBED POINTS
  6
Continuous2
 62
     3
420
    65280
370
    -3
100
AcDbPoint
 10
-5.665657932322841
 20
18.34370457477095
 30
0.0
  0
POINT
  5
CA
330
1F
100
AcDbEntity
  8
PROBED POINTS
  6
Continuous2
 62
     3
420
    65280
370
    -3
100
AcDbPoint
 10
-2.425184414765495
 20
17.68137862418292
 30
0.0
  0
POINT
  5
CB
330
1F
100
AcDbEntity
  8
PROBED POINTS
  6
Continuous2
 62
     3
420
    65280
370
    -3
100
AcDbPoint
 10
-2.067179026825602
 20
17.31602170265711
 30
0.0
  0
POINT
  5
CC
330
1F
100
AcDbEntity
  8
PROBED POINTS
  6
Continuous2
 62
     3
420
    65280
370
    -3
100
AcDbPoint
 10
-1.84180233062563
 20
17.00601069481187
 30
0.0
  0
POINT
  5
CD
330
1F
100
AcDbEntity
  8
PROBED POINTS
  6
Continuous2
 62
     3
420
    65280
370
    -3
100
AcDbPoint
 10
-1.702298714875766
 20
16.75557441068387
 30
0.0
  0
POINT
  5
CE
330
1F
100
AcDbEntity
  8
PROBED POINTS
  6
Continuous2
 62
     3
420
    65280
370
    -3
100
AcDbPoint
 10
-1.507085211074566
 20
16.37963403496324
 30
0.0
  0
POINT
  5
CF
330
1F
100
AcDbEntity
  8
PROBED POINTS
  6
Continuous2
 62
     3
420
    65280
370
    -3
100
AcDbPoint
 10
-1.305396735909121
 20
16.13869460062077
 30
0.0
  0
SPLINE
  5
D0
330
1F
100
AcDbEntity
  8
SPLINE PROFILES
  6
Continuous2
 62
     3
420
    65280
370
    50
100
AcDbSpline
210
0.0
220
0.0
230
1.0
 70
    11
 71
     3
 72
   416
 73
   412
 74
     0
 42
0.000000001
 43
0.000001
 40
0.0
 40
0.0
 40
0.0
 40
0.0
 40
1.0
 40
1.0
 40
1.0
 40
2.0
 40
2.0
 40
2.0
 40
3.0
 40
3.0
 40
3.0
 40
4.0
 40
4.0
 40
4.0
 40
5.0
 40
5.0
 40
5.0
 40
6.0
 40
6.0
 40
6.0
 40
7.0
 40
7.0
 40
7.0
 40
8.0
 40
8.0
 40
8.0
 40
9.0
 40
9.0
 40
9.0
 40
10.0
 40
10.0
 40
10.0
 40
11.0
 40
11.0
 40
11.0
 40
12.0
 40
12.0
 40
12.0
 40
13.0
 40
13.0
 40
13.0
 40
14.0
 40
14.0
 40
14.0
 40
15.0
 40
15.0
 40
15.0
 40
16.0
 40
16.0
 40
16.0
 40
17.0
 40
17.0
 40
17.0
 40
18.0
 40
18.0
 40
18.0
 40
19.0
 40
19.0
 40
19.0
 40
20.0
 40
20.0
 40
20.0
 40
21.0
 40
21.0
 40
21.0
 40
22.0
 40
22.0
 40
22.0
 40
23.0
 40
23.0
 40
23.0
 40
24.0
 40
24.0
 40
24.0
 40
25.0
 40
25.0
 40
25.0
 40
26.0
 40
26.0
 40
26.0
 40
27.0
 40
27.0
 40
27.0
 40
28.0
 40
28.0
 40
28.0
 40
29.0
 40
29.0
 40
29.0
 40
30.0
 40
30.0
 40
30.0
 40
31.0
 40
31.0
 40
31.0
 40
32.0
 40
32.0
 40
32.0
 40
33.0
 40
33.0
 40
33.0
 40
34.0
 40
34.0
 40
34.0
 40
35.0
 40
35.0
 40
35.0
 40
36.0
 40
36.0
 40
36.0
 40
37.0
 40
37.0
 40
37.0
 40
38.0
 40
38.0
 40
38.0
 40
39.0
 40
39.0
 40
39.0
 40
40.0
 40
40.0
 40
40.0
 40
41.0
 40
41.0
 40
41.0
 40
42.0
 40
42.0
 40
42.0
 40
43.0
 40
43.0
 40
43.0
 40
44.0
 40
44.0
 40
44.0
 40
45.0
 40
45.0
 40
45.0
 40
46.0
 40
46.0
 40
46.0
 40
47.0
 40
47.0
 40
47.0
 40
48.0
 40
48.0
 40
48.0
 40
49.0
 40
49.0
 40
49.0
 40
50.0
 40
50.0
 40
50.0
 40
51.0
 40
51.0
 40
51.0
 40
52.0
 40
52.0
 40
52.0
 40
53.0
 40
53.0
 40
53.0
 40
54.0
 40
54.0
 40
54.0
 40
55.0
 40
55.0
 40
55.0
 40
56.0
 40
56.0
 40
56.0
 40
57.0
 40
57.0
 40
57.0
 40
58.0
 40
58.0
 40
58.0
 40
59.0
 40
59.0
 40
59.0
 40
60.0
 40
60.0
 40
60.0
 40
61.0
 40
61.0
 40
61.0
 40
62.0
 40
62.0
 40
62.0
 40
63.0
 40
63.0
 40
63.0
 40
64.0
 40
64.0
 40
64.0
 40
65.0
 40
65.0
 40
65.0
 40
66.0
 40
66.0
 40
66.0
 40
67.0
 40
67.0
 40
67.0
 40
68.0
 40
68.0
 40
68.0
 40
69.0
 40
69.0
 40
69.0
 40
70.0
 40
70.0
 40
70.0
 40
71.0
 40
71.0
 40
71.0
 40
72.0
 40
72.0
 40
72.0
 40
73.0
 40
73.0
 40
73.0
 40
74.0
 40
74.0
 40
74.0
 40
75.0
 40
75.0
 40
75.0
 40
76.0
 40
76.0
 40
76.0
 40
77.0
 40
77.0
 40
77.0
 40
78.0
 40
78.0
 40
78.0
 40
79.0
 40
79.0
 40
79.0
 40
80.0
 40
80.0
 40
80.0
 40
81.0
 40
81.0
 40
81.0
 40
82.0
 40
82.0
 40
82.0
 40
83.0
 40
83.0
 40
83.0
 40
84.0
 40
84.0
 40
84.0
 40
85.0
 40
85.0
 40
85.0
 40
86.0
 40
86.0
 40
86.0
 40
87.0
 40
87.0
 40
87.0
 40
88.0
 40
88.0
 40
88.0
 40
89.0
 40
89.0
 40
89.0
 40
90.0
 40
90.0
 40
90.0
 40
91.0
 40
91.0
 40
91.0
 40
92.0
 40
92.0
 40
92.0
 40
93.0
 40
93.0
 40
93.0
 40
94.0
 40
94.0
 40
94.0
 40
95.0
 40
95.0
 40
95.0
 40
96.0
 40
96.0
 40
96.0
 40
97.0
 40
97.0
 40
97.0
 40
98.0
 40
98.0
 40
98.0
 40
99.0
 40
99.0
 40
99.0
 40
100.0
 40
100.0
 40
100.0
 40
101.0
 40
101.0
 40
101.0
 40
102.0
 40
102.0
 40
102.0
 40
103.0
 40
103.0
 40
103.0
 40
104.0
 40
104.0
 40
104.0
 40
105.0
 40
105.0
 40
105.0
 40
106.0
 40
106.0
 40
106.0
 40
107.0
 40
107.0
 40
107.0
 40
108.0
 40
108.0
 40
108.0
 40
109.0
 40
109.0
 40
109.0
 40
110.0
 40
110.0
 40
110.0
 40
111.0
 40
111.0
 40
111.0
 40
112.0
 40
112.0
 40
112.0
 40
113.0
 40
113.0
 40
113.0
 40
114.0
 40
114.0
 40
114.0
 40
115.0
 40
115.0
 40
115.0
 40
116.0
 40
116.0
 40
116.0
 40
117.0
 40
117.0
 40
117.0
 40
118.0
 40
118.0
 40
118.0
 40
119.0
 40
119.0
 40
119.0
 40
120.0
 40
120.0
 40
120.0
 40
121.0
 40
121.0
 40
121.0
 40
122.0
 40
122.0
 40
122.0
 40
123.0
 40
123.0
 40
123.0
 40
124.0
 40
124.0
 40
124.0
 40
125.0
 40
125.0
 40
125.0
 40
126.0
 40
126.0
 40
126.0
 40
127.0
 40
127.0
 40
127.0
 40
128.0
 40
128.0
 40
128.0
 40
129.0
 40
129.0
 40
129.0
 40
130.0
 40
130.0
 40
130.0
 40
131.0
 40
131.0
 40
131.0
 40
132.0
 40
132.0
 40
132.0
 40
133.0
 40
133.0
 40
133.0
 40
134.0
 40
134.0
 40
134.0
 40
135.0
 40
135.0
 40
135.0
 40
136.0
 40
136.0
 40
136.0
 40
137.0
 40
137.0
 40
137.0
 40
137.0
 10
-10.34195424441983
 20
19.69927617103192
 30
0.0
 10
-10.53784030683761
 20
19.69629397358058
 30
0.0
 10
-10.73374606611515
 20
19.6945723538842
 30
0.0
 10
-10.92965155970253
 20
19.69344074729721
 30
0.0
 10
-11.20828806978905
 20
19.69183126251751
 30
0.0
 10
-11.48696337014428
 20
19.69166293522319
 30
0.0
 10
-11.76557120145017
 20
19.69597240496769
 30
0.0
 10
-12.03040777648399
 20
19.70006886270901
 30
0.0
 10
-12.29522397505213
 20
19.70770259031034
 30
0.0
 10
-12.56009216177302
 20
19.70751257752709
 30
0.0
 10
-12.90006269068443
 20
19.7072686873596
 30
0.0
 10
-13.24105890051996
 20
19.69437146426234
 30
0.0
 10
-13.57857984296351
 20
19.65363286557828
 30
0.0
 10
-13.8195139133557
 20
19.62455225110749
 30
0.0
 10
-14.05945117514452
 20
19.58051091785532
 30
0.0
 10
-14.2937308431066
 20
19.51720258038445
 30
0.0
 10
-14.50896543643149
 20
19.45904070749063
 30
0.0
 10
-14.72053460252447
 20
19.38407948146087
 30
0.0
 10
-14.9233784024569
 20
19.29154231891943
 30
0.0
 10
-15.18197609158234
 20
19.17357028132491
 30
0.0
 10
-15.42928828995554
 20
19.02621585517433
 30
0.0
 10
-15.65476746417143
 20
18.8531571701275
 30
0.0
 10
-15.82329893110905
 20
18.72380671388842
 30
0.0
 10
-15.98076182104173
 20
18.57903790821832
 30
0.0
 10
-16.1257405321289
 20
18.42374602430642
 30
0.0
 10
-16.26363869403112
 20
18.27603836992597
 30
0.0
 10
-16.39188494389069
 20
18.11858238402816
 30
0.0
 10
-16.50768359846431
 20
17.95298007179333
 30
0.0
 10
-16.62249615900276
 20
17.78878796119604
 30
0.0
 10
-16.72589553342287
 20
17.61596765237023
 30
0.0
 10
-16.81595120699742
 20
17.43699573027957
 30
0.0
 10
-16.849249443253
 20
17.37082056209367
 30
0.0
 10
-16.88075570888068
 20
17.30370840914351
 30
0.0
 10
-16.91026506902483
 20
17.23575899350181
 30
0.0
 10
-16.94789080330361
 20
17.14912049490867
 30
0.0
 10
-16.98234560469493
 20
17.06105732036044
 30
0.0
 10
-17.01405089013145
 20
16.9720814798537
 30
0.0
 10
-17.06204683338625
 20
16.83738849938636
 30
0.0
 10
-17.10340791411544
 20
16.70006100276037
 30
0.0
 10
-17.13635480964142
 20
16.56091966587124
 30
0.0
 10
-17.15536051726189
 20
16.48065475700446
 30
0.0
 10
-17.17166491973409
 20
16.39972035674498
 30
0.0
 10
-17.18577718230684
 20
16.31845217993126
 30
0.0
 10
-17.19672604016214
 20
16.25540107728162
 30
0.0
 10
-17.20633486073772
 20
16.19209865119747
 30
0.0
 10
-17.21441736867985
 20
16.12861643243477
 30
0.0
 10
-17.22817280734164
 20
16.02057747069719
 30
0.0
 10
-17.23767114068191
 20
15.91198983409136
 30
0.0
 10
-17.24531439729828
 20
15.80334725507923
 30
0.0
 10
-17.25853187903387
 20
15.61547167064243
 30
0.0
 10
-17.26519074276734
 20
15.42709884689761
 30
0.0
 10
-17.26787629373819
 20
15.23877804383304
 30
0.0
 10
-17.27150928874827
 20
14.98401894774653
 30
0.0
 10
-17.26786272488799
 20
14.72920409042486
 30
0.0
 10
-17.26611712071792
 20
14.47442507135609
 30
0.0
 10
-17.26207135962595
 20
13.88392748887314
 30
0.0
 10
-17.26950775974035
 20
13.29340426508427
 30
0.0
 10
-17.27342603085589
 20
12.70290582287423
 30
0.0
 10
-17.27715453009725
 20
12.14100672786931
 30
0.0
 10
-17.27774315534258
 20
11.57909012757147
 30
0.0
 10
-17.27856683983859
 20
11.01717926611941
 30
0.0
 10
-17.28011933476965
 20
9.958079855691654
 30
0.0
 10
-17.28251989588723
 20
8.898968626471733
 30
0.0
 10
-17.29098022778058
 20
7.839901870222072
 30
0.0
 10
-17.29325747785251
 20
7.554835057565864
 30
0.0
 10
-17.29597367509306
 20
7.269771906741026
 30
0.0
 10
-17.29836226551854
 20
6.984706005269734
 30
0.0
 10
-17.30458856005037
 20
6.24162998662436
 30
0.0
 10
-17.30840697242773
 20
5.49852349241231
 30
0.0
 10
-17.30820348244368
 20
4.755421416771767
 30
0.0
 10
-17.3080992388681
 20
4.374746084029448
 30
0.0
 10
-17.30701303130567
 20
3.99406109039001
 30
0.0
 10
-17.30989100305295
 20
3.613396622513349
 30
0.0
 10
-17.31121556171376
 20
3.438199482978397
 30
0.0
 10
-17.31324738060823
 20
3.262978884823564
 30
0.0
 10
-17.31098663631345
 20
3.087791324785446
 30
0.0
 10
-17.30625852340465
 20
2.721404659122793
 30
0.0
 10
-17.28318668037736
 20
2.352473876595627
 30
0.0
 10
-17.21230275188548
 20
1.992978379393456
 30
0.0
 10
-17.18632455039288
 20
1.861227125467545
 30
0.0
 10
-17.15379370238807
 20
1.730585782047978
 30
0.0
 10
-17.11465908694673
 20
1.602126676733881
 30
0.0
 10
-17.05056152386998
 20
1.391726867950948
 30
0.0
 10
-16.96858592719203
 20
1.186103577982117
 30
0.0
 10
-16.87170789732809
 20
0.9886416209930458
 30
0.0
 10
-16.83845353596057
 20
0.9208608116261091
 30
0.0
 10
-16.80342119593062
 20
0.8539113673222801
 30
0.0
 10
-16.76633690687147
 20
0.7881478046650163
 30
0.0
 10
-16.72040299071951
 20
0.7066907227149183
 30
0.0
 10
-16.67130852882265
 20
0.6269590186918655
 30
0.0
 10
-16.61969565602172
 20
0.5489763782254429
 30
0.0
 10
-16.58298239791621
 20
0.4935057823871689
 30
0.0
 10
-16.54492004694641
 20
0.4388961460097401
 30
0.0
 10
-16.50534863648658
 20
0.3854269605138466
 30
0.0
 10
-16.41962655938746
 20
0.2695986494113449
 30
0.0
 10
-16.32680975199473
 20
0.1587804722670955
 30
0.0
 10
-16.22865516353914
 20
0.0532809513195501
 30
0.0
 10
-16.08545490712259
 20
-0.1006350162294176
 30
0.0
 10
-15.92996245467083
 20
-0.2439770173293634
 30
0.0
 10
-15.76479025644313
 20
-0.3740330953762163
 30
0.0
 10
-15.69077736776838
 20
-0.4323106150147582
 30
0.0
 10
-15.61465942115625
 20
-0.4879756537845986
 30
0.0
 10
-15.53706079044764
 20
-0.5413856668659506
 30
0.0
 10
-15.47893483461812
 20
-0.581392919994918
 30
0.0
 10
-15.41989903342024
 20
-0.6201242121623336
 30
0.0
 10
-15.35986351011713
 20
-0.6572044358097436
 30
0.0
 10
-15.23780965662633
 20
-0.7325895400857039
 30
0.0
 10
-15.11151640025335
 20
-0.8014743606594487
 30
0.0
 10
-14.98219230324816
 20
-0.8635657049229036
 30
0.0
 10
-14.78864381152902
 20
-0.9564925941052254
 30
0.0
 10
-14.58684221532607
 20
-1.034017841789356
 30
0.0
 10
-14.38059504899477
 20
-1.09367127220341
 30
0.0
 10
-14.19957292645033
 20
-1.146028794406954
 30
0.0
 10
-14.01423298113982
 20
-1.18438362203672
 30
0.0
 10
-13.82790340286723
 20
-1.212519137716156
 30
0.0
 10
-13.67527166595517
 20
-1.235566324678532
 30
0.0
 10
-13.52147969216665
 20
-1.251616883080522
 30
0.0
 10
-13.36746520101277
 20
-1.26196852325393
 30
0.0
 10
-13.19503032424994
 20
-1.273558236560915
 30
0.0
 10
-13.02208378667678
 20
-1.278182334146067
 30
0.0
 10
-12.84926037833444
 20
-1.278603888043326
 30
0.0
 10
-12.60932956801849
 20
-1.27918913149577
 30
0.0
 10
-12.36945046742151
 20
-1.271378026171343
 30
0.0
 10
-12.12956244754096
 20
-1.26680920065963
 30
0.0
 10
-11.49022551283972
 20
-1.254632607183652
 30
0.0
 10
-10.85065514239263
 20
-1.268066594557162
 30
0.0
 10
-10.21120782013387
 20
-1.27073259492553
 30
0.0
 10
-9.729176859575983
 20
-1.272742290914047
 30
0.0
 10
-9.247135440670746
 20
-1.268861160990199
 30
0.0
 10
-8.765111650206848
 20
-1.265551895038253
 30
0.0
 10
-7.98292280726899
 20
-1.260181888500951
 30
0.0
 10
-7.200723871674981
 20
-1.256389123815399
 30
0.0
 10
-6.418527913470597
 20
-1.252181279308
 30
0.0
 10
-4.70181429707184
 20
-1.242946171550446
 30
0.0
 10
-2.985070500307817
 20
-1.231660941072879
 30
0.0
 10
-1.268337723121695
 20
-1.236076785161946
 30
0.0
 10
-0.0781533966375432
 20
-1.239138221684176
 30
0.0
 10
1.112000276963376
 20
-1.249753464776619
 30
0.0
 10
2.302158267341187
 20
-1.258242359991254
 30
0.0
 10
2.810673893623822
 20
-1.261869387580379
 30
0.0
 10
3.319192572961243
 20
-1.265110358924216
 30
0.0
 10
3.827703888058144
 20
-1.26929842783173
 30
0.0
 10
4.273884726473703
 20
-1.272973146645295
 30
0.0
 10
4.720059511217192
 20
-1.277377009802641
 30
0.0
 10
5.166242054775513
 20
-1.280838505345992
 30
0.0
 10
5.68847717508849
 20
-1.284890018717914
 30
0.0
 10
6.210721785252643
 20
-1.287650518222941
 30
0.0
 10
6.732965364222058
 20
-1.290403675343569
 30
0.0
 10
7.112212960183735
 20
-1.292402988042374
 30
0.0
 10
7.491461229243839
 20
-1.294398433924287
 30
0.0
 10
7.870703317791232
 20
-1.297257554101914
 30
0.0
 10
8.363247767409753
 20
-1.300970864983827
 30
0.0
 10
8.855781594770143
 20
-1.306144195880999
 30
0.0
 10
9.348331080720843
 20
-1.309115292887031
 30
0.0
 10
9.718104438462364
 20
-1.311345794689251
 30
0.0
 10
10.08789439583006
 20
-1.312351805960057
 30
0.0
 10
10.45764085958247
 20
-1.317338164983815
 30
0.0
 10
10.60194589809472
 20
-1.319284246424749
 30
0.0
 10
10.74628206613934
 20
-1.321650962317865
 30
0.0
 10
10.89058834567297
 20
-1.319799190151417
 30
0.0
 10
11.05723740934068
 20
-1.317660710116717
 30
0.0
 10
11.22406576411406
 20
-1.310100303160767
 30
0.0
 10
11.38986779712781
 20
-1.293183761945423
 30
0.0
 10
11.54749311221581
 20
-1.277101479413661
 30
0.0
 10
11.7045845491441
 20
-1.252632774736598
 30
0.0
 10
11.8592611445695
 20
-1.218288479786322
 30
0.0
 10
12.07436984485112
 20
-1.170525877897365
 30
0.0
 10
12.28612909310453
 20
-1.104374108942572
 30
0.0
 10
12.49044939108171
 20
-1.02187420039374
 30
0.0
 10
12.55884749774058
 20
-0.9942565941150905
 30
0.0
 10
12.62653268473237
 20
-0.9647870116637736
 30
0.0
 10
12.69326073726316
 20
-0.9333481793614986
 30
0.0
 10
12.78019067359879
 20
-0.892391256645335
 30
0.0
 10
12.86559904175901
 20
-0.84809382678791
 30
0.0
 10
12.94946109080575
 20
-0.8011743204032773
 30
0.0
 10
13.00939501701341
 20
-0.7676422249522211
 30
0.0
 10
13.06856458924824
 20
-0.7326905223341849
 30
0.0
 10
13.12670612435431
 20
-0.6961386573815719
 30
0.0
 10
13.25134495119624
 20
-0.6177819102081871
 30
0.0
 10
13.37163374630932
 20
-0.5321136563312429
 30
0.0
 10
13.48682332282257
 20
-0.4404295331319408
 30
0.0
 10
13.65975167930216
 20
-0.302788739406971
 30
0.0
 10
13.82198040295913
 20
-0.1504482213439711
 30
0.0
 10
13.96975679903866
 20
0.0139030528638033
 30
0.0
 10
14.0439349007502
 20
0.0964011097797703
 30
0.0
 10
14.11459868242088
 20
0.1821704027389571
 30
0.0
 10
14.18177278972472
 20
0.2704651334785045
 30
0.0
 10
14.26858043313408
 20
0.3845665009339013
 30
0.0
 10
14.34937524939213
 20
0.5035137326038356
 30
0.0
 10
14.42329387364121
 20
0.6263580487059697
 30
0.0
 10
14.57499737166114
 20
0.8784719463045556
 30
0.0
 10
14.69994710013441
 20
1.148808668444919
 30
0.0
 10
14.79278425492763
 20
1.428015816211118
 30
0.0
 10
14.85579075425045
 20
1.617507458925044
 30
0.0
 10
14.90422352803212
 20
1.812399169122526
 30
0.0
 10
14.93814616442765
 20
2.009188793735501
 30
0.0
 10
14.97143591488292
 20
2.202306964716268
 30
0.0
 10
14.99105886987128
 20
2.397852322173796
 30
0.0
 10
15.00393778878594
 20
2.593395076823311
 30
0.0
 10
15.0166191586428
 20
2.785938411475215
 30
0.0
 10
15.02277851539727
 20
2.978948108057508
 30
0.0
 10
15.02489844209363
 20
3.171896958199518
 30
0.0
 10
15.02802824716297
 20
3.456761661462605
 30
0.0
 10
15.02232188428616
 20
3.741658750995992
 30
0.0
 10
15.01922540179363
 20
4.026523818424613
 30
0.0
 10
15.01472067195296
 20
4.440942492811813
 30
0.0
 10
15.01653491838736
 20
4.855407640455955
 30
0.0
 10
15.01671644709393
 20
5.269850757565058
 30
0.0
 10
15.01691444726071
 20
5.721899405188227
 30
0.0
 10
15.01522102615881
 20
6.17394944107478
 30
0.0
 10
15.01632865549886
 20
6.625996775077809
 30
0.0
 10
15.01762824714051
 20
7.15638804917572
 30
0.0
 10
15.02276043473038
 20
7.686775889971709
 30
0.0
 10
15.02144906815636
 20
8.217167135087378
 30
0.0
 10
15.02019077681296
 20
8.726091737539917
 30
0.0
 10
15.01299761708123
 20
9.23498516038991
 30
0.0
 10
15.00987500035021
 20
9.743901738566857
 30
0.0
 10
15.00467381770624
 20
10.59157799910021
 30
0.0
 10
15.01075623893067
 20
11.43931500127653
 30
0.0
 10
15.0026007446269
 20
12.28696798622106
 30
0.0
 10
15.00017637794175
 20
12.53894801106224
 30
0.0
 10
14.99625662070683
 20
12.79105640377442
 30
0.0
 10
14.98262385442344
 20
13.04267905409877
 30
0.0
 10
14.97134669384617
 20
13.25082382630425
 30
0.0
 10
14.95440457280142
 20
13.45914342824493
 30
0.0
 10
14.92241075702297
 20
13.66512356393547
 30
0.0
 10
14.9023474845029
 20
13.79429338927609
 30
0.0
 10
14.87655293755567
 20
13.92278248920766
 30
0.0
 10
14.84358879861835
 20
14.04927653739516
 30
0.0
 10
14.80845669492714
 20
14.18408976657407
 30
0.0
 10
14.76505708605874
 20
14.31695751561043
 30
0.0
 10
14.71469741895329
 20
14.4468527634082
 30
0.0
 10
14.68019485286591
 20
14.53584698495841
 30
0.0
 10
14.64233267973328
 20
14.62357635131973
 30
0.0
 10
14.60209534171943
 20
14.71012896633222
 30
0.0
 10
14.57165755363011
 20
14.77560223778518
 30
0.0
 10
14.53976699799478
 20
14.84042986408367
 30
0.0
 10
14.50612551791416
 20
14.90431616180477
 30
0.0
 10
14.3728619509693
 20
15.15738813999399
 30
0.0
 10
14.2118714630251
 20
15.39774146041303
 30
0.0
 10
14.02789231591653
 20
15.61673067898025
 30
0.0
 10
13.97393259803915
 20
15.68095859088105
 30
0.0
 10
13.91785102908778
 20
15.74343393331835
 30
0.0
 10
13.86033383570463
 20
15.8044965920049
 30
0.0
 10
13.81244388413516
 20
15.85533856803322
 30
0.0
 10
13.76349782506635
 20
15.90522566416924
 30
0.0
 10
13.71314248554144
 20
15.95362704606192
 30
0.0
 10
13.63797161880493
 20
16.02588102870697
 30
0.0
 10
13.55969290738373
 20
16.09498247165317
 30
0.0
 10
13.47927706628594
 20
16.16134955471792
 30
0.0
 10
13.42530857013313
 20
16.20588968037174
 30
0.0
 10
13.37024157959051
 20
16.24914172524328
 30
0.0
 10
13.31402162484572
 20
16.29080391504106
 30
0.0
 10
13.13948195901624
 20
16.42014775243899
 30
0.0
 10
12.9533918393019
 20
16.5352492471361
 30
0.0
 10
12.7594865097876
 20
16.63320151309579
 30
0.0
 10
12.59632481981973
 20
16.71562347277168
 30
0.0
 10
12.42694414002964
 20
16.78690818701403
 30
0.0
 10
12.25353916777587
 20
16.84475135521613
 30
0.0
 10
12.16983936715894
 20
16.87267132534525
 30
0.0
 10
12.08509774596989
 20
16.89757713309729
 30
0.0
 10
11.99977326046706
 20
16.92004741411471
 30
0.0
 10
11.93469309424693
 20
16.93718633519941
 30
0.0
 10
11.86920275508367
 20
16.9528549881626
 30
0.0
 10
11.8033691499304
 20
16.96682306189201
 30
0.0
 10
11.63433961251426
 20
17.00268646380627
 30
0.0
 10
11.46271362478372
 20
17.02727351512711
 30
0.0
 10
11.29066857077332
 20
17.0433255401252
 30
0.0
 10
11.14139294859618
 20
17.05725314782408
 30
0.0
 10
10.99141379587924
 20
17.06423373848876
 30
0.0
 10
10.84151284165555
 20
17.06685929660289
 30
0.0
 10
10.75332094832129
 20
17.06840400285472
 30
0.0
 10
10.66510476738542
 20
17.06856529441792
 30
0.0
 10
10.57690004747554
 20
17.06821379348826
 30
0.0
 10
10.48577206248769
 20
17.06785064317755
 30
0.0
 10
10.39464563177597
 20
17.06694017097425
 30
0.0
 10
10.30351692351182
 20
17.06693267417743
 30
0.0
 10
10.02279250720738
 20
17.06690958009489
 30
0.0
 10
9.742130980870817
 20
17.0753448066588
 30
0.0
 10
9.461443242445329
 20
17.0798826409869
 30
0.0
 10
8.851917718103273
 20
17.08973674385318
 30
0.0
 10
8.242234850511876
 20
17.08232427742934
 30
0.0
 10
7.632629738698084
 20
17.08259962857419
 30
0.0
 10
7.015410387526461
 20
17.08287841897748
 30
0.0
 10
6.398217754495852
 20
17.09125545315323
 30
0.0
 10
5.781000909868866
 20
17.09303643420632
 30
0.0
 10
5.168276442535793
 20
17.09480445249131
 30
0.0
 10
4.555512096474702
 20
17.0900325191051
 30
0.0
 10
3.942823996903293
 20
17.09693841519671
 30
0.0
 10
3.496723335927564
 20
17.10196662582011
 30
0.0
 10
3.050647888715055
 20
17.11297245334329
 30
0.0
 10
2.604520261225601
 20
17.11186673381028
 30
0.0
 10
2.221083580459029
 20
17.1109163926938
 30
0.0
 10
1.8377200376378
 20
17.10104922691896
 30
0.0
 10
1.454335119572535
 20
17.09467773528723
 30
0.0
 10
1.139200659047884
 20
17.08944050115651
 30
0.0
 10
0.8237590317694912
 20
17.08658739340269
 30
0.0
 10
0.5088092358792871
 20
17.09857834416657
 30
0.0
 10
0.3476536630607473
 20
17.10471395233082
 30
0.0
 10
0.1864802381606274
 20
17.1139736401254
 30
0.0
 10
0.02521026760879
 20
17.11310132353934
 30
0.0
 10
-0.0341313142594709
 20
17.11278034223122
 30
0.0
 10
-0.0934600222654714
 20
17.11114570434486
 30
0.0
 10
-0.1528006844494247
 20
17.11068507521249
 30
0.0
 10
-0.1700856543852017
 20
17.11055090143667
 30
0.0
 10
-0.1873789606980096
 20
17.11057308792814
 30
0.0
 10
-0.2046551641411098
 20
17.11113964143439
 30
0.0
 10
-0.2271738652724573
 20
17.111878116709
 30
0.0
 10
-0.2496623841372145
 20
17.11347796132814
 30
0.0
 10
-0.2721195185074592
 20
17.11529850032826
 30
0.0
 10
-0.2877480934949605
 20
17.11656546653205
 30
0.0
 10
-0.303452017829059
 20
17.11793055087872
 30
0.0
 10
-0.3187876485428049
 20
17.12119796424606
 30
0.0
 10
-0.3274303951019758
 20
17.12303939001883
 30
0.0
 10
-0.3359350495167722
 20
17.12548121837137
 30
0.0
 10
-0.3445423059889431
 20
17.12748198147202
 30
0.0
 10
-0.3466089133859314
 20
17.12796236588218
 30
0.0
 10
-0.3487384998455631
 20
17.12841661564639
 30
0.0
 10
-0.3506012142612014
 20
17.12943245535845
 30
0.0
 10
-0.3534295337258241
 20
17.13097489214125
 30
0.0
 10
-0.3554671452584005
 20
17.13374738414617
 30
0.0
 10
-0.357308385393425
 20
17.1363909304363
 30
0.0
 10
-0.3670550826093924
 20
17.15038467561714
 30
0.0
 10
-0.3739483247358122
 20
17.16621594613163
 30
0.0
 10
-0.3808886961431814
 20
17.18179330969335
 30
0.0
 10
-0.4031054794798639
 20
17.23165791936539
 30
0.0
 10
-0.4278158087655949
 20
17.28037856941359
 30
0.0
 10
-0.4520370642476186
 20
17.32930091136949
 30
0.0
 10
-0.4611159916767357
 20
17.34763862274905
 30
0.0
 10
-0.4701311882999436
 20
17.36600813219654
 30
0.0
 10
-0.4792959543516002
 20
17.38430309448461
 30
0.0
 10
-0.5365435638483591
 20
17.49858237351062
 30
0.0
 10
-0.5995634795128788
 20
17.61003734816051
 30
0.0
 10
-0.6660481809459823
 20
17.71920156795413
 30
0.0
 10
-0.7284564817431181
 20
17.82167256230791
 30
0.0
 10
-0.7944455338700974
 20
17.92218596491966
 30
0.0
 10
-0.8660050995517028
 20
18.01848928392632
 30
0.0
 10
-0.9252000228011861
 20
18.09815253401694
 30
0.0
 10
-0.9880055847656006
 20
18.1753717832143
 30
0.0
 10
-1.055369674887908
 20
18.24825766466953
 30
0.0
 10
-1.092510536805751
 20
18.28844293925683
 30
0.0
 10
-1.131079777275913
 20
18.32733471983934
 30
0.0
 10
-1.170652874482615
 20
18.36512717801721
 30
0.0
 10
-1.207869386336501
 20
18.40066908823004
 30
0.0
 10
-1.246020526505543
 20
18.43528245670447
 30
0.0
 10
-1.281885824772562
 20
18.47218742271671
 30
0.0
 10
-1.302222079063694
 20
18.49311318688694
 30
0.0
 10
-1.321806804805467
 20
18.51475862836111
 30
0.0
 10
-1.341490589273415
 20
18.5362992753737
 30
0.0
 10
-1.382939647471286
 20
18.58165841518234
 30
0.0
 10
-1.425036455663949
 20
18.62647606211458
 30
0.0
 10
-1.468748908074202
 20
18.66965820534475
 30
0.0
 10
-1.511120229241605
 20
18.71151548762051
 30
0.0
 10
-1.554768900743201
 20
18.7521291406844
 30
0.0
 10
-1.599736536185049
 20
18.79118388047041
 30
0.0
 10
-1.729244776336694
 20
18.90366279045908
 30
0.0
 10
-1.869791119723636
 20
19.00369755215421
 30
0.0
 10
-2.014546274456009
 20
19.09572925667944
 30
0.0
 10
-2.08268150444919
 20
19.13904793065746
 30
0.0
 10
-2.15184112387912
 20
19.18082749195603
 30
0.0
 10
-2.222224304489246
 20
19.22038915229329
 30
0.0
 10
-2.305605895143293
 20
19.26725708493344
 30
0.0
 10
-2.390875918816278
 20
19.31089636265158
 30
0.0
 10
-2.477565105811013
 20
19.35132008870638
 30
0.0
 10
-2.537372743511771
 20
19.37920877524517
 30
0.0
 10
-2.59789593294969
 20
19.40562749664135
 30
0.0
 10
-2.659112149753873
 20
19.4302710995514
 30
0.0
 10
-2.79267963906895
 20
19.48404090664193
 30
0.0
 10
-2.929698809749556
 20
19.52973726584073
 30
0.0
 10
-3.068446296952117
 20
19.56821584626493
 30
0.0
 10
-3.210281447647587
 20
19.60755072261514
 30
0.0
 10
-3.354391076578959
 20
19.63940316884506
 30
0.0
 10
-3.499547817512645
 20
19.66377452563543
 30
0.0
 10
-3.588789983658701
 20
19.67875800251636
 30
0.0
 10
-3.678540328895876
 20
19.69088007782081
 30
0.0
 10
-3.768491659204441
 20
19.70075058812177
 30
0.0
 10
-3.838226758068097
 20
19.70840273744863
 30
0.0
 10
-3.908132930026396
 20
19.71463387339626
 30
0.0
 10
-3.978123623139445
 20
19.71941323322782
 30
0.0
 10
-4.139447164599667
 20
19.73042931579034
 30
0.0
 10
-4.301312002754096
 20
19.73387152209433
 30
0.0
 10
-4.463011126430678
 20
19.7336912264559
 30
0.0
 10
-4.564062030578137
 20
19.73357855400065
 30
0.0
 10
-4.665108337268342
 20
19.73200439704747
 30
0.0
 10
-4.766145315844616
 20
19.73032306297034
 30
0.0
 10
-5.065453663210924
 20
19.725342338773
 30
0.0
 10
-5.364770362114919
 20
19.7192841915473
 30
0.0
 10
-5.664119599814496
 20
19.71871121217456
 30
0.0
 10
-5.94697854951233
 20
19.71816979658607
 30
0.0
 10
-6.229827462460171
 20
19.72249763425483
 30
0.0
 10
-6.51268599208325
 20
19.7232261769586
 30
0.0
 10
-6.655285763120712
 20
19.72359346311713
 30
0.0
 10
-6.797898185529737
 20
19.72310362810377
 30
0.0
 10
-6.940479856781977
 20
19.72080218899394
 30
0.0
 10
-7.075562352753543
 20
19.71862179556361
 30
0.0
 10
-7.210617937253531
 20
19.71470986620297
 30
0.0
 10
-7.345710645857101
 20
19.71329745140189
 30
0.0
 10
-7.560585685537573
 20
19.71105090020333
 30
0.0
 10
-7.775501280394161
 20
19.71566650450962
 30
0.0
 10
-7.990327908666829
 20
19.72075074043751
 30
0.0
 10
-8.220906921239841
 20
19.72620778321367
 30
0.0
 10
-8.451505719657602
 20
19.73231180935685
 30
0.0
 10
-8.682147834487381
 20
19.73313352819706
 30
0.0
 10
-8.948905514058708
 20
19.73408391755347
 30
0.0
 10
-9.215675764658412
 20
19.72815952480614
 30
0.0
 10
-9.482327547850073
 20
19.72058394754009
 30
0.0
 10
-9.648190376756435
 20
19.71587178450518
 30
0.0
 10
-9.814035937296183
 20
19.71051205335948
 30
0.0
 10
-9.979915026148614
 20
19.7064120076552
 30
0.0
 10
-10.10058135072599
 20
19.70342948918854
 30
0.0
 10
-10.2212650514361
 20
19.7011135605801
 30
0.0
 10
-10.34195424441983
 20
19.69927617103192
 30
0.0
  0
ARC
  5
D1
330
1F
100
AcDbEntity
  8
LINES & ARCS PROFILES
  6
Continuous2
 62
     3
420
    65280
370
    50
100
AcDbCircle
 10
-12.86331591570303
 20
15.35157989347141
 30
0.0
 40
3.0
100
AcDbArc
 50
90.0
 51
180.0270133102647
  0
ARC
  5
D2
330
1F
100
AcDbEntity
  8
LINES & ARCS PROFILES
  6
Continuous2
 62
     3
420
    65280
370
    50
100
AcDbCircle
 10
-4.363315915703032
 20
15.35157989347141
 30
0.0
 40
3.0
100
AcDbArc
 50
22.88538047615859
 51
90.0
  0
ARC
  5
D3
330
1F
100
AcDbEntity
  8
LINES & ARCS PROFILES
  6
Continuous2
 62
     3
420
    65280
370
    50
100
AcDbCircle
 10
-12.86331591570303
 20
3.101579893471406
 30
0.0
 40
3.0
100
AcDbArc
 50
179.9729866897353
 51
270.0
  0
ARC
  5
D4
330
1F
100
AcDbEntity
  8
LINES & ARCS PROFILES
  6
Continuous2
 62
     3
420
    65280
370
    50
100
AcDbCircle
 10
10.63668408429697
 20
3.101579893471406
 30
0.0
 40
3.0
100
AcDbArc
 50
270.0
 51
0.0
  0
ARC
  5
D5
330
1F
100
AcDbEntity
  8
LINES & ARCS PROFILES
  6
Continuous2
 62
     3
420
    65280
370
    50
100
AcDbCircle
 10
10.63668408429697
 20
12.60157989347141
 30
0.0
 40
3.0
100
AcDbArc
 50
0.0
 51
90.0
  0
LINE
  5
D6
330
1F
100
AcDbEntity
  8
LINES & ARCS PROFILES
  6
Continuous2
 62
     3
420
    65280
370
    50
100
AcDbLine
 10
-0.2175349277587815
 20
15.60157989347141
 30
0.0
 11
10.63668408429697
 21
15.60157989347141
 31
0.0
  0
SPLINE
  5
D7
330
1F
100
AcDbEntity
  8
SPLINE PROFILES
  6
Continuous2
 62
     3
420
    65280
370
    50
100
AcDbSpline
210
0.0
220
0.0
230
1.0
 70
    11
 71
     3
 72
    95
 73
    91
 74
     0
 42
0.000000001
 43
0.000001
 40
0.0
 40
0.0
 40
0.0
 40
0.0
 40
1.463274977795411
 40
2.770231535617039
 40
3.920160720247193
 40
4.603080615162761
 40
5.119723722622114
 40
5.681277816540516
 40
6.153638803419383
 40
6.594695025061481
 40
6.979724934120018
 40
8.211785268543567
 40
9.997113893396975
 40
11.67780025440713
 40
14.86227917304055
 40
15.71797497594184
 40
16.89797223939828
 40
17.93832432788001
 40
19.08690684906483
 40
19.99439542927578
 40
20.55822833768747
 40
21.13813372952032
 40
21.45821578678876
 40
21.99897158309588
 40
22.475796752019
 40
22.91361888305705
 40
23.33073127819576
 40
23.71065871692365
 40
25.18649238628922
 40
27.13064504518572
 40
28.56523876564301
 40
30.91273257848453
 40
32.61250581294161
 40
36.07518449677604
 40
39.65087567866299
 40
41.17739540336029
 40
42.51519816886515
 40
44.08016514552166
 40
45.21944040789347
 40
46.69609662481158
 40
47.81272130774804
 40
48.76035035925896
 40
49.65875171726932
 40
50.73438724729368
 40
51.84750100883259
 40
52.42764248938634
 40
53.76304108754993
 40
55.0177717509339
 40
56.37803259104333
 40
57.96155454643252
 40
59.48409400521383
 40
62.01916035085278
 40
62.82834650186609
 40
63.45258699808051
 40
63.90278945363021
 40
64.33975015888083
 40
64.78693043807414
 40
65.13999477717408
 40
65.77948999915255
 40
66.21715788784239
 40
66.7142495790863
 40
67.58519568639295
 40
68.4418283614527
 40
70.25440153502906
 40
72.10744557823415
 40
73.95863940562207
 40
75.2764525067218
 40
76.4120974526004
 40
77.42720460293994
 40
77.86071311285941
 40
78.07005407269698
 40
78.4939897253553
 40
78.74888725649318
 40
79.03282210126335
 40
79.2919828341094
 40
79.60619622025938
 40
80.02979919258526
 40
80.31646902220659
 40
80.69974631109186
 40
80.98473655432149
 40
81.21137263172164
 40
81.62624524407248
 40
81.96524638912962
 40
82.85533306344095
 40
83.69067843375622
 40
84.61292360730418
 40
85.86566691329074
 40
86.28546804228007
 40
87.63286644010616
 40
89.26940957589525
 40
89.26940957589525
 40
89.26940957589525
 40
89.26940957589525
 10
-10.32157962271338
 20
18.32441069713129
 30
0.0
 10
-10.80930322503896
 20
18.31859070998735
 30
0.0
 10
-11.73346017219236
 20
18.30900853277376
 30
0.0
 10
-13.03739429593722
 20
18.3594873020897
 30
0.0
 10
-14.09159726796312
 20
18.2010309379747
 30
0.0
 10
-14.78860830525603
 20
17.81705089341679
 30
0.0
 10
-15.21302075859384
 20
17.40622548828072
 30
0.0
 10
-15.51627886936146
 20
16.98367193561317
 30
0.0
 10
-15.72363179979071
 20
16.53518809934758
 30
0.0
 10
-15.83679979213577
 20
16.11502357625037
 30
0.0
 10
-15.90494159989923
 20
15.43093126893712
 30
0.0
 10
-15.88184244919
 20
14.29554469531688
 30
0.0
 10
-15.90154393380319
 20
12.73011407335265
 30
0.0
 10
-15.9038546914561
 20
10.51309801523833
 30
0.0
 10
-15.90818039096621
 20
8.606203317965676
 30
0.0
 10
-15.92475872722982
 20
6.86621063723353
 30
0.0
 10
-15.93172261485159
 20
5.840904295992677
 30
0.0
 10
-15.93410704357379
 20
4.717851477423917
 30
0.0
 10
-15.93112022884283
 20
3.685982802251022
 30
0.0
 10
-15.94503157552478
 20
2.811951097551176
 30
0.0
 10
-15.85641781754034
 20
2.13034713210563
 30
0.0
 10
-15.68538240881608
 20
1.668546775837817
 30
0.0
 10
-15.4492578755556
 20
1.249360280133585
 30
0.0
 10
-15.16076781331938
 20
0.904140127523464
 30
0.0
 10
-14.78404273491972
 20
0.5952711635695153
 30
0.0
 10
-14.39962788784382
 20
0.3697135153554675
 30
0.0
 10
-14.01381204052852
 20
0.2206091606164475
 30
0.0
 10
-13.26878703478678
 20
0.0678088924480542
 30
0.0
 10
-11.99273825347464
 20
0.1307626037871535
 30
0.0
 10
-10.37848121364751
 20
0.0970138074969873
 30
0.0
 10
-8.468786122514185
 20
0.1124795866685397
 30
0.0
 10
-6.641873262265223
 20
0.1213358101274641
 30
0.0
 10
-4.138509482567998
 20
0.1357667043329166
 30
0.0
 10
-1.225806696326892
 20
0.1461308788620716
 30
0.0
 10
1.629088373824378
 20
0.12068778400612
 30
0.0
 10
3.775719688206059
 20
0.1070077624946539
 30
0.0
 10
5.252062692267195
 20
0.0924362044395447
 30
0.0
 10
6.599466690814038
 20
0.0853127591199598
 30
0.0
 10
7.992853958882209
 20
0.0779838154896514
 30
0.0
 10
9.237912905869678
 20
0.0649170457683401
 30
0.0
 10
10.4155062463459
 20
0.0617847273853866
 30
0.0
 10
11.41085786915832
 20
0.0392139245787545
 30
0.0
 10
12.35134857635926
 20
0.3683220030847153
 30
0.0
 10
13.15163173073254
 20
1.058354714256455
 30
0.0
 10
13.55843845851559
 20
1.923381605990272
 30
0.0
 10
13.66628109211135
 20
2.93089165236641
 30
0.0
 10
13.63782428284333
 20
3.988461711143313
 30
0.0
 10
13.64348060609287
 20
5.304998879963624
 30
0.0
 10
13.63824114082813
 20
6.704568362801205
 30
0.0
 10
13.65266075829013
 20
8.193370464255484
 30
0.0
 10
13.62604816447779
 20
10.07346113921318
 30
0.0
 10
13.63772767155165
 20
11.69671187557909
 30
0.0
 10
13.61796384515085
 20
13.01797055270313
 30
0.0
 10
13.54988176171209
 20
13.64700546805955
 30
0.0
 10
13.37096106181622
 20
14.12148154014785
 30
0.0
 10
13.1556554711111
 20
14.51234502744229
 30
0.0
 10
12.89610407808433
 20
14.83562382174506
 30
0.0
 10
12.54715488687937
 20
15.16614746902106
 30
0.0
 10
12.14146389182026
 20
15.4280646443179
 30
0.0
 10
11.64502940354247
 20
15.60583881827613
 30
0.0
 10
11.0481524238805
 20
15.70600783545661
 30
0.0
 10
10.30457948694181
 20
15.68318247947532
 30
0.0
 10
9.12550540961721
 20
15.71835113373258
 30
0.0
 10
7.617578559500545
 20
15.69966997276187
 30
0.0
 10
5.778862169125553
 20
15.72461489914427
 30
0.0
 10
4.104776588135035
 20
15.71163943158193
 30
0.0
 10
2.669955280742027
 20
15.74733487125005
 30
0.0
 10
1.5140197463419
 20
15.71729850984381
 30
0.0
 10
0.6524005105826234
 20
15.7102394199752
 30
0.0
 10
0.1000249851073757
 20
15.74262105996451
 30
0.0
 10
-0.2553024431018577
 20
15.73053197571993
 30
0.0
 10
-0.5529096251918691
 20
15.75399969431339
 30
0.0
 10
-0.8625028976647771
 20
15.84295391720439
 30
0.0
 10
-1.102807614894682
 20
15.96260646872842
 30
0.0
 10
-1.324108768962229
 20
16.14549714826199
 30
0.0
 10
-1.543154417964184
 20
16.40024428014392
 30
0.0
 10
-1.676101619373647
 20
16.71822310015557
 30
0.0
 10
-1.854489630917765
 20
17.03534638802766
 30
0.0
 10
-2.034181430524597
 20
17.30199611344366
 30
0.0
 10
-2.261617393694507
 20
17.49725229346416
 30
0.0
 10
-2.461160894839402
 20
17.73411517985802
 30
0.0
 10
-2.728236743588233
 20
17.92829277571679
 30
0.0
 10
-3.205261198037896
 20
18.1990190319871
 30
0.0
 10
-3.889237004804077
 20
18.36793935851489
 30
0.0
 10
-4.772670898307139
 20
18.35597238192354
 30
0.0
 10
-5.775690248806686
 20
18.33588023363533
 30
0.0
 10
-6.640831090521296
 20
18.35584229973378
 30
0.0
 10
-7.647251057576736
 20
18.32668478685676
 30
0.0
 10
-8.781848797397773
 20
18.38403141735304
 30
0.0
 10
-9.776104079387402
 20
18.33091983598442
 30
0.0
 10
-10.32157962271338
 20
18.32441069713129
 30
0.0
  0
LINE
  5
D8
330
1F
100
AcDbEntity
  8
LINES & ARCS PROFILES
  6
Continuous2
 62
     3
420
    65280
370
    50
100
AcDbLine
 10
-4.363315915703032
 20
18.35157989347141
 30
0.0
 11
-12.86331591570303
 21
18.35157989347141
 31
0.0
  0
LINE
  5
D9
330
1F
100
AcDbEntity
  8
LINES & ARCS PROFILES
  6
Continuous2
 62
     3
420
    65280
370
    50
100
AcDbLine
 10
-12.86331591570303
 20
0.1015798934714063
 30
0.0
 11
10.63668408429697
 21
0.1015798934714063
 31
0.0
  0
LINE
  5
DA
330
1F
100
AcDbEntity
  8
LINES & ARCS PROFILES
  6
Continuous2
 62
     3
420
    65280
370
    50
100
AcDbLine
 10
13.63668441772461
 20
3.101579904556274
 30
0.0
 11
13.63668441772461
 21
12.6015796661377
 31
0.0
  0
ARC
  5
DB
330
1F
100
AcDbEntity
  8
LINES & ARCS PROFILES
  6
Continuous2
 62
     3
420
    65280
370
    50
100
AcDbCircle
 10
-0.2175349277587815
 20
17.10157989347141
 30
0.0
 40
1.5
100
AcDbArc
 50
202.8853804761585
 51
270.0
  0
LINE
  5
DC
330
1F
100
AcDbEntity
  8
LINES & ARCS PROFILES
  6
Continuous2
 62
     3
420
    65280
370
    50
100
AcDbLine
 10
-15.86331558227539
 20
15.35016536712646
 30
0.0
 11
-15.86331558227539
 21
3.102994203567505
 31
0.0
  0
LINE
  5
DD
330
1F
100
AcDbEntity
  8
LINES & ARCS PROFILES
  6
Continuous2
 62
     3
420
    65280
370
    50
100
AcDbLine
 10
-4.363315915703032
 20
19.72657989347141
 30
0.0
 11
-12.86331591570303
 21
19.72657989347141
 31
0.0
  0
ARC
  5
DE
330
1F
100
AcDbEntity
  8
LINES & ARCS PROFILES
  6
Continuous2
 62
     3
420
    65280
370
    50
100
AcDbCircle
 10
-12.86331591570303
 20
15.35157989347141
 30
0.0
 40
4.375
100
AcDbArc
 50
90.0
 51
180.0223691460103
  0
LINE
  5
DF
330
1F
100
AcDbEntity
  8
LINES & ARCS PROFILES
  6
Continuous2
 62
     3
420
    65280
370
    50
100
AcDbLine
 10
-17.23831558227539
 20
15.34987182680156
 30
0.0
 11
-17.23831558227539
 21
3.10328796014125
 31
0.0
  0
ARC
  5
E0
330
1F
100
AcDbEntity
  8
LINES & ARCS PROFILES
  6
Continuous2
 62
     3
420
    65280
370
    50
100
AcDbCircle
 10
-12.86331591570303
 20
3.101579893471406
 30
0.0
 40
4.375
100
AcDbArc
 50
179.9776308539897
 51
270.0
  0
LINE
  5
E1
330
1F
100
AcDbEntity
  8
LINES & ARCS PROFILES
  6
Continuous2
 62
     3
420
    65280
370
    50
100
AcDbLine
 10
-12.86331591570303
 20
-1.273420106528594
 30
0.0
 11
10.63668408429697
 21
-1.273420106528594
 31
0.0
  0
ARC
  5
E2
330
1F
100
AcDbEntity
  8
LINES & ARCS PROFILES
  6
Continuous2
 62
     3
420
    65280
370
    50
100
AcDbCircle
 10
10.63668408429697
 20
3.101579893471406
 30
0.0
 40
4.375
100
AcDbArc
 50
270.0
 51
0.0
  0
LINE
  5
E3
330
1F
100
AcDbEntity
  8
LINES & ARCS PROFILES
  6
Continuous2
 62
     3
420
    65280
370
    50
100
AcDbLine
 10
15.01168408429697
 20
3.101579893471405
 30
0.0
 11
15.01168408429697
 21
12.60157989347141
 31
0.0
  0
ARC
  5
E4
330
1F
100
AcDbEntity
  8
LINES & ARCS PROFILES
  6
Continuous2
 62
     3
420
    65280
370
    50
100
AcDbCircle
 10
10.63668408429697
 20
12.60157989347141
 30
0.0
 40
4.375
100
AcDbArc
 50
0.0
 51
90.0
  0
LINE
  5
E5
330
1F
100
AcDbEntity
  8
LINES & ARCS PROFILES
  6
Continuous2
 62
     3
420
    65280
370
    50
100
AcDbLine
 10
10.63668408429697
 20
16.97657989347141
 30
0.0
 11
0.1781596154432049
 21
16.97657989347141
 31
0.0
  0
ARC
  5
E6
330
1F
100
AcDbEntity
  8
LINES & ARCS PROFILES
  6
Continuous2
 62
     3
420
    65280
370
    50
100
AcDbCircle
 10
-4.363315915703032
 20
15.35157989347141
 30
0.0
 40
4.375
100
AcDbArc
 50
27.60766805909758
 51
90.0
  0
ARC
  5
E7
330
1F
100
AcDbEntity
  8
LINES & ARCS PROFILES
  6
Continuous2
 62
     3
420
    65280
370
    50
100
AcDbCircle
 10
0.1781596154432048
 20
17.72657989347141
 30
0.0
 40
0.75
100
AcDbArc
 50
207.6076680590976
 51
270.0
  0
VIEWPORT
  5
E8
330
23
100
AcDbEntity
 67
     1
  8
0
100
AcDbViewport
 10
5.25
 20
4.0
 30
0.0
 40
11.638
 41
8.993
 68
     1
 69
     1
 12
5.25
 22
4.0
 13
0.0
 23
0.0
 14
0.5
 24
0.5
 15
0.5
 25
0.5
 16
0.0
 26
0.0
 36
1.0
 17
0.0
 27
0.0
 37
0.0
 42
50.0
 43
0.0
 44
0.0
 45
8.993
 50
0.0
 51
0.0
 72
   100
 90
   557152
  1

281
     0
 71
     1
 74
     0
110
0.0
120
0.0
130
0.0
111
1.0
121
0.0
131
0.0
112
0.0
122
1.0
132
0.0
 79
     0
146
0.0
170
     0
 61
     5
348
2F
292
     1
282
     1
141
0.0
142
0.0
 63
   256
361
E9
  0
ENDSEC
  0
SECTION
  2
OBJECTS
  0
DICTIONARY
  5
C
330
0
100
AcDbDictionary
281
     1
  3
ACAD_DETAILVIEWSTYLE
350
F1
  3
ACAD_GROUP
350
D
  3
ACAD_LAYOUT
350
1A
  3
ACAD_MATERIAL
350
43
  3
ACAD_MLEADERSTYLE
350
6B
  3
ACAD_MLINESTYLE
350
17
  3
ACAD_PLOTSETTINGS
350
19
  3
ACAD_PLOTSTYLENAME
350
E
  3
ACAD_SCALELIST
350
47
  3
ACAD_SECTIONVIEWSTYLE
350
F2
  3
ACAD_TABLESTYLE
350
69
  3
ACAD_VISUALSTYLE
350
2A
  3
ACDB_RECOMPOSE_DATA
350
EE
  3
AcDbVariableDictionary
350
EA
  0
SUN
  5
6D
330
29
100
AcDbSun
 90
        1
290
     0
 63
     7
421
 16777215
 40
1.0
291
     1
 91
  2455826
 92
 54000000
292
     0
 70
     2
 71
   256
280
     1
  0
SUN
  5
E9
330
E8
100
AcDbSun
 90
        1
290
     0
 63
     7
421
 16777215
 40
1.0
291
     1
 91
  2455826
 92
 54000000
292
     0
 70
     2
 71
   256
280
     1
  0
DICTIONARY
  5
F1
102
{ACAD_REACTORS
330
C
102
}
330
C
100
AcDbDictionary
281
     1
  0
DICTIONARY
  5
D
102
{ACAD_REACTORS
330
C
102
}
330
C
100
AcDbDictionary
281
     1
  0
DICTIONARY
  5
1A
102
{ACAD_REACTORS
330
C
102
}
330
C
100
AcDbDictionary
281
     1
  3
Layout2
350
26
  3
Model
350
22
  0
DICTIONARY
  5
43
102
{ACAD_REACTORS
330
C
102
}
330
C
100
AcDbDictionary
281
     1
  3
ByBlock
350
45
  3
ByLayer
350
44
  3
Global
350
46
  0
DICTIONARY
  5
6B
102
{ACAD_REACTORS
330
C
102
}
330
C
100
AcDbDictionary
281
     1
  3
Standard
350
6C
  0
DICTIONARY
  5
17
102
{ACAD_REACTORS
330
C
102
}
330
C
100
AcDbDictionary
281
     1
  3
Standard
350
18
  0
DICTIONARY
  5
19
102
{ACAD_REACTORS
330
C
102
}
330
C
100
AcDbDictionary
281
     1
  0
ACDBDICTIONARYWDFLT
  5
E
102
{ACAD_REACTORS
330
C
102
}
330
C
100
AcDbDictionary
281
     1
  3
Normal
350
F
100
AcDbDictionaryWithDefault
340
F
  0
DICTIONARY
  5
47
102
{ACAD_REACTORS
330
C
102
}
330
C
100
AcDbDictionary
281
     1
  3
A0
350
48
  3
A1
350
49
  3
A2
350
4A
  3
A3
350
4B
  3
A4
350
4C
  3
A5
350
4D
  3
A6
350
4E
  3
A7
350
4F
  3
A8
350
50
  3
A9
350
51
  3
B0
350
52
  3
B1
350
53
  3
B2
350
54
  3
B3
350
55
  3
B4
350
56
  3
B5
350
57
  3
B6
350
58
  3
B7
350
59
  3
B8
350
5A
  3
B9
350
5B
  3
C0
350
5C
  3
C1
350
5D
  3
C2
350
5E
  3
C3
350
5F
  3
C4
350
60
  3
C5
350
61
  3
C6
350
62
  3
C7
350
63
  3
C8
350
64
  3
C9
350
65
  3
D0
350
66
  3
D1
350
67
  3
D2
350
68
  0
DICTIONARY
  5
F2
102
{ACAD_REACTORS
330
C
102
}
330
C
100
AcDbDictionary
281
     1
  0
DICTIONARY
  5
69
102
{ACAD_REACTORS
330
C
102
}
330
C
100
AcDbDictionary
281
     1
  3
Standard
350
6A
  0
DICTIONARY
  5
2A
102
{ACAD_REACTORS
330
C
102
}
330
C
100
AcDbDictionary
281
     1
  3
2dWireframe
350
2F
  3
Basic
350
32
  3
Brighten
350
36
  3
ColorChange
350
3A
  3
Conceptual
350
34
  3
Dim
350
35
  3
EdgeColorOff
350
3D
  3
Facepattern
350
39
  3
Flat
350
2B
  3
FlatWithEdges
350
2C
  3
Gouraud
350
2D
  3
GouraudWithEdges
350
2E
  3
Hidden
350
31
  3
JitterOff
350
3B
  3
Linepattern
350
38
  3
OverhangOff
350
3C
  3
Realistic
350
33
  3
Shaded
350
42
  3
Shaded with edges
350
41
  3
Shades of Gray
350
3E
  3
Sketchy
350
3F
  3
Thicken
350
37
  3
Wireframe
350
30
  3
X-Ray
350
40
  0
XRECORD
  5
EE
102
{ACAD_REACTORS
330
C
102
}
330
C
100
AcDbXrecord
280
     1
 90
        1
330
6A
  0
DICTIONARY
  5
EA
102
{ACAD_REACTORS
330
C
102
}
330
C
100
AcDbDictionary
281
     1
  3
CANNOSCALE
350
EB
  3
CMLEADERSTYLE
350
F0
  3
CTABLESTYLE
350
EF
  0
LAYOUT
  5
26
102
{ACAD_REACTORS
330
1A
102
}
330
1A
100
AcDbPlotSettings
  1

  2
none_device
  4
Letter_(8.50_x_11.00_Inches)
  6

 40
6.35
 41
6.35
 42
6.35001
 43
6.35001
 44
215.9
 45
279.4
 46
0.0
 47
0.0
 48
0.0
 49
0.0
140
0.0
141
0.0
142
1.0
143
1.0
 70
   688
 72
     0
 73
     1
 74
     5
  7

 75
    16
 76
     0
 77
     2
 78
   300
147
1.0
148
0.0
149
0.0
100
AcDbLayout
  1
Layout2
 70
     1
 71
     1
 10
-0.25
 20
-0.25
 11
10.75
 21
8.25
 12
0.0
 22
0.0
 32
0.0
 14
0.0
 24
0.0
 34
0.0
 15
0.0
 25
0.0
 35
0.0
146
0.0
 13
0.0
 23
0.0
 33
0.0
 16
1.0
 26
0.0
 36
0.0
 17
0.0
 27
1.0
 37
0.0
 76
     0
330
23
331
E8
  0
LAYOUT
  5
22
102
{ACAD_REACTORS
330
1A
102
}
330
1A
100
AcDbPlotSettings
  1

  2
none_device
  4
Letter_(8.50_x_11.00_Inches)
  6

 40
6.35
 41
6.35
 42
6.35000508
 43
6.35000508
 44
215.9
 45
279.4
 46
0.0
 47
0.0
 48
0.0
 49
0.0
140
0.0
141
0.0
142
1.0
143
1.0
 70
  1712
 72
     0
 73
     0
 74
     0
  7

 75
     0
 76
     0
 77
     2
 78
   300
147
1.0
148
0.0
149
0.0
100
AcDbLayout
  1
Model
 70
     1
 71
     0
 10
0.0
 20
0.0
 11
12.0
 21
9.0
 12
0.0
 22
0.0
 32
0.0
 14
-17.31195908783541
 24
-1.320293346323315
 34
0.0
 15
15.02521667129089
 25
19.7336912264559
 35
0.0
146
0.0
 13
0.0
 23
0.0
 33
0.0
 16
1.0
 26
0.0
 36
0.0
 17
0.0
 27
1.0
 37
0.0
 76
     0
330
1F
331
29
  0
MATERIAL
  5
45
102
{ACAD_REACTORS
330
43
102
}
330
43
100
AcDbMaterial
  1
ByBlock
 72
     1
 94
      127
  0
MATERIAL
  5
44
102
{ACAD_REACTORS
330
43
102
}
330
43
100
AcDbMaterial
  1
ByLayer
 72
     1
 94
      127
  0
MATERIAL
  5
46
102
{ACAD_REACTORS
330
43
102
}
330
43
100
AcDbMaterial
  1
Global
 72
     1
 94
      127
  0
MLEADERSTYLE
  5
6C
102
{ACAD_REACTORS
330
6B
102
}
330
6B
100
AcDbMLeaderStyle
179
     2
170
     2
171
     1
172
     0
 90
        2
 40
0.0
 41
0.0
173
     1
 91
-1056964608
340
14
 92
       -2
290
     1
 42
0.09
291
     1
 43
0.36
  3
Standard
341
0
 44
0.18
300

342
11
174
     1
178
     6
175
     1
176
     0
 93
-1056964608
 45
0.18
292
     0
297
     0
 46
0.18
343
0
 94
-1056964608
 47
1.0
 49
1.0
140
1.0
293
     1
141
0.0
294
     1
177
     0
142
1.0
295
     0
296
     0
143
0.125
271
     0
272
     9
273
     9
298
     0
  0
MLINESTYLE
  5
18
102
{ACAD_REACTORS
330
17
102
}
330
17
100
AcDbMlineStyle
  2
Standard
 70
     0
  3

 62
   256
 51
90.0
 52
90.0
 71
     2
 49
0.5
 62
   256
  6
BYLAYER
 49
-0.5
 62
   256
  6
BYLAYER
  0
ACDBPLACEHOLDER
  5
F
102
{ACAD_REACTORS
330
E
102
}
330
E
  0
SCALE
  5
48
102
{ACAD_REACTORS
330
47
102
}
330
47
100
AcDbScale
 70
     0
300
1:1
140
1.0
141
1.0
290
     1
  0
SCALE
  5
49
102
{ACAD_REACTORS
330
47
102
}
330
47
100
AcDbScale
 70
     0
300
1:2
140
1.0
141
2.0
290
     0
  0
SCALE
  5
4A
102
{ACAD_REACTORS
330
47
102
}
330
47
100
AcDbScale
 70
     0
300
1:4
140
1.0
141
4.0
290
     0
  0
SCALE
  5
4B
102
{ACAD_REACTORS
330
47
102
}
330
47
100
AcDbScale
 70
     0
300
1:5
140
1.0
141
5.0
290
     0
  0
SCALE
  5
4C
102
{ACAD_REACTORS
330
47
102
}
330
47
100
AcDbScale
 70
     0
300
1:8
140
1.0
141
8.0
290
     0
  0
SCALE
  5
4D
102
{ACAD_REACTORS
330
47
102
}
330
47
100
AcDbScale
 70
     0
300
1:10
140
1.0
141
10.0
290
     0
  0
SCALE
  5
4E
102
{ACAD_REACTORS
330
47
102
}
330
47
100
AcDbScale
 70
     0
300
1:16
140
1.0
141
16.0
290
     0
  0
SCALE
  5
4F
102
{ACAD_REACTORS
330
47
102
}
330
47
100
AcDbScale
 70
     0
300
1:20
140
1.0
141
20.0
290
     0
  0
SCALE
  5
50
102
{ACAD_REACTORS
330
47
102
}
330
47
100
AcDbScale
 70
     0
300
1:30
140
1.0
141
30.0
290
     0
  0
SCALE
  5
51
102
{ACAD_REACTORS
330
47
102
}
330
47
100
AcDbScale
 70
     0
300
1:40
140
1.0
141
40.0
290
     0
  0
SCALE
  5
52
102
{ACAD_REACTORS
330
47
102
}
330
47
100
AcDbScale
 70
     0
300
1:50
140
1.0
141
50.0
290
     0
  0
SCALE
  5
53
102
{ACAD_REACTORS
330
47
102
}
330
47
100
AcDbScale
 70
     0
300
1:100
140
1.0
141
100.0
290
     0
  0
SCALE
  5
54
102
{ACAD_REACTORS
330
47
102
}
330
47
100
AcDbScale
 70
     0
300
2:1
140
2.0
141
1.0
290
     0
  0
SCALE
  5
55
102
{ACAD_REACTORS
330
47
102
}
330
47
100
AcDbScale
 70
     0
300
4:1
140
4.0
141
1.0
290
     0
  0
SCALE
  5
56
102
{ACAD_REACTORS
330
47
102
}
330
47
100
AcDbScale
 70
     0
300
8:1
140
8.0
141
1.0
290
     0
  0
SCALE
  5
57
102
{ACAD_REACTORS
330
47
102
}
330
47
100
AcDbScale
 70
     0
300
10:1
140
10.0
141
1.0
290
     0
  0
SCALE
  5
58
102
{ACAD_REACTORS
330
47
102
}
330
47
100
AcDbScale
 70
     0
300
100:1
140
100.0
141
1.0
290
     0
  0
SCALE
  5
59
102
{ACAD_REACTORS
330
47
102
}
330
47
100
AcDbScale
 70
     0
300
1/128" = 1'-0"
140
0.0078125
141
12.0
290
     0
  0
SCALE
  5
5A
102
{ACAD_REACTORS
330
47
102
}
330
47
100
AcDbScale
 70
     0
300
1/64" = 1'-0"
140
0.015625
141
12.0
290
     0
  0
SCALE
  5
5B
102
{ACAD_REACTORS
330
47
102
}
330
47
100
AcDbScale
 70
     0
300
1/32" = 1'-0"
140
0.03125
141
12.0
290
     0
  0
SCALE
  5
5C
102
{ACAD_REACTORS
330
47
102
}
330
47
100
AcDbScale
 70
     0
300
1/16" = 1'-0"
140
0.0625
141
12.0
290
     0
  0
SCALE
  5
5D
102
{ACAD_REACTORS
330
47
102
}
330
47
100
AcDbScale
 70
     0
300
3/32" = 1'-0"
140
0.09375
141
12.0
290
     0
  0
SCALE
  5
5E
102
{ACAD_REACTORS
330
47
102
}
330
47
100
AcDbScale
 70
     0
300
1/8" = 1'-0"
140
0.125
141
12.0
290
     0
  0
SCALE
  5
5F
102
{ACAD_REACTORS
330
47
102
}
330
47
100
AcDbScale
 70
     0
300
3/16" = 1'-0"
140
0.1875
141
12.0
290
     0
  0
SCALE
  5
60
102
{ACAD_REACTORS
330
47
102
}
330
47
100
AcDbScale
 70
     0
300
1/4" = 1'-0"
140
0.25
141
12.0
290
     0
  0
SCALE
  5
61
102
{ACAD_REACTORS
330
47
102
}
330
47
100
AcDbScale
 70
     0
300
3/8" = 1'-0"
140
0.375
141
12.0
290
     0
  0
SCALE
  5
62
102
{ACAD_REACTORS
330
47
102
}
330
47
100
AcDbScale
 70
     0
300
1/2" = 1'-0"
140
0.5
141
12.0
290
     0
  0
SCALE
  5
63
102
{ACAD_REACTORS
330
47
102
}
330
47
100
AcDbScale
 70
     0
300
3/4" = 1'-0"
140
0.75
141
12.0
290
     0
  0
SCALE
  5
64
102
{ACAD_REACTORS
330
47
102
}
330
47
100
AcDbScale
 70
     0
300
1" = 1'-0"
140
1.0
141
12.0
290
     0
  0
SCALE
  5
65
102
{ACAD_REACTORS
330
47
102
}
330
47
100
AcDbScale
 70
     0
300
1-1/2" = 1'-0"
140
1.5
141
12.0
290
     0
  0
SCALE
  5
66
102
{ACAD_REACTORS
330
47
102
}
330
47
100
AcDbScale
 70
     0
300
3" = 1'-0"
140
3.0
141
12.0
290
     0
  0
SCALE
  5
67
102
{ACAD_REACTORS
330
47
102
}
330
47
100
AcDbScale
 70
     0
300
6" = 1'-0"
140
6.0
141
12.0
290
     0
  0
SCALE
  5
68
102
{ACAD_REACTORS
330
47
102
}
330
47
100
AcDbScale
 70
     0
300
1'-0" = 1'-0"
140
12.0
141
12.0
290
     0
  0
TABLESTYLE
  5
6A
102
{ACAD_REACTORS
330
69
102
}
102
{ACAD_XDICTIONARY
360
EC
102
}
330
69
100
AcDbTableStyle
  3
Standard
 70
     0
 71
     0
 40
0.06
 41
0.06
280
     0
281
     0
  7
Standard
140
0.18
170
     2
 62
     0
 63
   257
283
     0
 90
        4
 91
        0
  1

274
    -2
284
     1
 64
     0
275
    -2
285
     1
 65
     0
276
    -2
286
     1
 66
     0
277
    -2
287
     1
 67
     0
278
    -2
288
     1
 68
     0
279
    -2
289
     1
 69
     0
  7
Standard
140
0.25
170
     5
 62
     0
 63
   257
283
     0
 90
        4
 91
        0
  1

274
    -2
284
     1
 64
     0
275
    -2
285
     1
 65
     0
276
    -2
286
     1
 66
     0
277
    -2
287
     1
 67
     0
278
    -2
288
     1
 68
     0
279
    -2
289
     1
 69
     0
  7
Standard
140
0.18
170
     5
 62
     0
 63
   257
283
     0
 90
        4
 91
        0
  1

274
    -2
284
     1
 64
     0
275
    -2
285
     1
 65
     0
276
    -2
286
     1
 66
     0
277
    -2
287
     1
 67
     0
278
    -2
288
     1
 68
     0
279
    -2
289
     1
 69
     0
  0
VISUALSTYLE
  5
2F
102
{ACAD_REACTORS
330
2A
102
}
330
2A
100
AcDbVisualStyle
  2
2dWireframe
 70
     4
177
     3
291
     0
 70
    58
 90
        0
176
     1
 90
        2
176
     1
 90
        0
176
     1
 90
        0
176
     1
 40
0.6
176
     1
 40
30.0
176
     1
 62
     7
420
 16777215
176
     1
 90
        1
176
     1
 90
        4
176
     1
 62
     7
176
     1
 62
   257
176
     1
 90
        1
176
     1
 90
        1
176
     1
 40
1.0
176
     1
 90
        0
176
     1
 62
   257
176
     1
 40
1.0
176
     1
 90
        1
176
     1
 90
        6
176
     1
 90
        2
176
     1
 62
     7
176
     1
 90
        5
176
     1
 90
        0
176
     1
 90
        0
176
     1
290
     0
176
     1
 90
        1
176
     1
 40
0.0
176
     1
 90
        0
176
     1
290
     1
176
     1
290
     1
176
     1
290
     0
176
     1
290
     0
176
     1
290
     0
176
     1
290
     0
176
     1
290
     0
176
     1
290
     0
176
     1
290
     0
176
     1
 90
       50
176
     1
 40
0.0
176
     1
 40
1.0
176
     1
 90
        0
176
     1
 62
    18
420
        0
176
     1
 90
       50
176
     1
 90
        3
176
     1
 62
     5
420
      255
176
     1
290
     0
176
     1
 90
       50
176
     1
 90
       50
176
     1
 90
       50
176
     1
290
     0
176
     1
 90
       50
176
     1
 62
   256
176
     0
 40
1.0
176
     0
 90
        2
176
     1
  1
strokes_ogs.tif
176
     1
290
     0
176
     1
 40
1.0
176
     1
 40
1.0
176
     1
  0
VISUALSTYLE
  5
32
102
{ACAD_REACTORS
330
2A
102
}
330
2A
100
AcDbVisualStyle
  2
Basic
 70
     7
177
     3
291
     1
 70
    58
 90
        1
176
     1
 90
        0
176
     1
 90
        1
176
     1
 90
        0
176
     1
 40
0.6
176
     1
 40
30.0
176
     1
 62
     7
420
 16777215
176
     1
 90
        0
176
     1
 90
        4
176
     1
 62
     7
176
     1
 62
   257
176
     1
 90
        1
176
     1
 90
        1
176
     1
 40
1.0
176
     1
 90
        8
176
     1
 62
     7
176
     1
 40
1.0
176
     1
 90
        1
176
     1
 90
        6
176
     1
 90
        2
176
     1
 62
     7
176
     1
 90
        5
176
     1
 90
        0
176
     1
 90
        0
176
     1
290
     0
176
     1
 90
        1
176
     1
 40
0.0
176
     1
 90
        0
176
     1
290
     0
176
     1
290
     1
176
     1
290
     1
176
     1
290
     0
176
     1
290
     0
176
     1
290
     0
176
     1
290
     0
176
     1
290
     0
176
     1
290
     0
176
     1
 90
       50
176
     1
 40
0.0
176
     1
 40
1.0
176
     1
 90
        0
176
     1
 62
    18
420
        0
176
     1
 90
       50
176
     1
 90
        3
176
     1
 62
     5
420
      255
176
     1
290
     0
176
     1
 90
       50
176
     1
 90
       50
176
     1
 90
       50
176
     1
290
     0
176
     1
 90
       50
176
     1
 62
   256
176
     0
 40
1.0
176
     0
 90
        2
176
     1
  1
strokes_ogs.tif
176
     1
290
     0
176
     1
 40
1.0
176
     1
 40
1.0
176
     1
  0
VISUALSTYLE
  5
36
102
{ACAD_REACTORS
330
2A
102
}
330
2A
100
AcDbVisualStyle
  2
Brighten
 70
    12
177
     3
291
     1
 70
    58
 90
        2
176
     1
 90
        2
176
     1
 90
        0
176
     1
 90
        0
176
     1
 40
0.6
176
     1
 40
30.0
176
     1
 62
     7
420
 16777215
176
     1
 90
        1
176
     1
 90
        4
176
     1
 62
     7
176
     1
 62
   257
176
     1
 90
        1
176
     1
 90
        1
176
     1
 40
1.0
176
     1
 90
        8
176
     1
 62
     7
176
     1
 40
1.0
176
     1
 90
        1
176
     1
 90
        6
176
     1
 90
        2
176
     1
 62
     7
176
     1
 90
        5
176
     1
 90
        0
176
     1
 90
        0
176
     1
290
     0
176
     1
 90
        1
176
     1
 40
50.0
176
     1
 90
        0
176
     1
290
     0
176
     1
290
     1
176
     1
290
     1
176
     1
290
     0
176
     1
290
     0
176
     1
290
     0
176
     1
290
     0
176
     1
290
     0
176
     1
290
     0
176
     1
 90
       50
176
     1
 40
0.0
176
     1
 40
1.0
176
     1
 90
        0
176
     1
 62
    18
420
        0
176
     1
 90
       50
176
     1
 90
        3
176
     1
 62
     5
420
      255
176
     1
290
     0
176
     1
 90
       50
176
     1
 90
       50
176
     1
 90
       50
176
     1
290
     0
176
     1
 90
       50
176
     1
 62
   256
176
     0
 40
1.0
176
     0
 90
        2
176
     1
  1
strokes_ogs.tif
176
     1
290
     0
176
     1
 40
1.0
176
     1
 40
1.0
176
     1
  0
VISUALSTYLE
  5
3A
102
{ACAD_REACTORS
330
2A
102
}
330
2A
100
AcDbVisualStyle
  2
ColorChange
 70
    16
177
     3
291
     1
 70
    58
 90
        2
176
     1
 90
        2
176
     1
 90
        3
176
     1
 90
        0
176
     1
 40
0.6
176
     1
 40
30.0
176
     1
 62
     8
420
  8421504
176
     1
 90
        1
176
     1
 90
        4
176
     1
 62
     7
176
     1
 62
   257
176
     1
 90
        1
176
     1
 90
        1
176
     1
 40
1.0
176
     1
 90
        8
176
     1
 62
     8
420
  8421504
176
     1
 40
1.0
176
     1
 90
        1
176
     1
 90
        6
176
     1
 90
        2
176
     1
 62
     7
176
     1
 90
        5
176
     1
 90
        0
176
     1
 90
        0
176
     1
290
     0
176
     1
 90
        1
176
     1
 40
0.0
176
     1
 90
        0
176
     1
290
     0
176
     1
290
     1
176
     1
290
     1
176
     1
290
     0
176
     1
290
     0
176
     1
290
     0
176
     1
290
     0
176
     1
290
     0
176
     1
290
     0
176
     1
 90
       50
176
     1
 40
0.0
176
     1
 40
1.0
176
     1
 90
        0
176
     1
 62
    18
420
        0
176
     1
 90
       50
176
     1
 90
        3
176
     1
 62
     5
420
      255
176
     1
290
     0
176
     1
 90
       50
176
     1
 90
       50
176
     1
 90
       50
176
     1
290
     0
176
     1
 90
       50
176
     1
 62
   256
176
     0
 40
1.0
176
     0
 90
        2
176
     1
  1
strokes_ogs.tif
176
     1
290
     0
176
     1
 40
1.0
176
     1
 40
1.0
176
     1
  0
VISUALSTYLE
  5
34
102
{ACAD_REACTORS
330
2A
102
}
330
2A
100
AcDbVisualStyle
  2
Conceptual
 70
     9
177
     3
291
     0
 70
    58
 90
        3
176
     1
 90
        2
176
     1
 90
        0
176
     1
 90
        0
176
     1
 40
0.6
176
     1
 40
30.0
176
     1
 62
     7
420
 16777215
176
     1
 90
        2
176
     1
 90
        2
176
     1
 62
     7
176
     1
 62
   257
176
     1
 90
        1
176
     1
 90
        1
176
     1
 40
179.0
176
     1
 90
        8
176
     1
 62
     7
176
     1
 40
1.0
176
     1
 90
        1
176
     1
 90
        6
176
     1
 90
        2
176
     1
 62
     7
176
     1
 90
        3
176
     1
 90
        0
176
     1
 90
        0
176
     1
290
     0
176
     1
 90
        1
176
     1
 40
0.0
176
     1
 90
        0
176
     1
290
     0
176
     1
290
     1
176
     1
290
     1
176
     1
290
     0
176
     1
290
     0
176
     1
290
     0
176
     1
290
     0
176
     1
290
     0
176
     1
290
     0
176
     1
 90
       50
176
     1
 40
0.0
176
     1
 40
1.0
176
     1
 90
        0
176
     1
 62
    18
420
        0
176
     1
 90
       50
176
     1
 90
        3
176
     1
 62
     5
420
      255
176
     1
290
     0
176
     1
 90
       50
176
     1
 90
       50
176
     1
 90
       50
176
     1
290
     0
176
     1
 90
       50
176
     1
 62
   256
176
     0
 40
1.0
176
     0
 90
        2
176
     1
  1
strokes_ogs.tif
176
     1
290
     0
176
     1
 40
1.0
176
     1
 40
1.0
176
     1
  0
VISUALSTYLE
  5
35
102
{ACAD_REACTORS
330
2A
102
}
330
2A
100
AcDbVisualStyle
  2
Dim
 70
    11
177
     3
291
     1
 70
    58
 90
        2
176
     1
 90
        2
176
     1
 90
        0
176
     1
 90
        0
176
     1
 40
0.6
176
     1
 40
30.0
176
     1
 62
     7
420
 16777215
176
     1
 90
        1
176
     1
 90
        4
176
     1
 62
     7
176
     1
 62
   257
176
     1
 90
        1
176
     1
 90
        1
176
     1
 40
1.0
176
     1
 90
        8
176
     1
 62
     7
176
     1
 40
1.0
176
     1
 90
        1
176
     1
 90
        6
176
     1
 90
        2
176
     1
 62
     7
176
     1
 90
        5
176
     1
 90
        0
176
     1
 90
        0
176
     1
290
     0
176
     1
 90
        1
176
     1
 40
-50.0
176
     1
 90
        0
176
     1
290
     0
176
     1
290
     1
176
     1
290
     1
176
     1
290
     0
176
     1
290
     0
176
     1
290
     0
176
     1
290
     0
176
     1
290
     0
176
     1
290
     0
176
     1
 90
       50
176
     1
 40
0.0
176
     1
 40
1.0
176
     1
 90
        0
176
     1
 62
    18
420
        0
176
     1
 90
       50
176
     1
 90
        3
176
     1
 62
     5
420
      255
176
     1
290
     0
176
     1
 90
       50
176
     1
 90
       50
176
     1
 90
       50
176
     1
290
     0
176
     1
 90
       50
176
     1
 62
   256
176
     0
 40
1.0
176
     0
 90
        2
176
     1
  1
strokes_ogs.tif
176
     1
290
     0
176
     1
 40
1.0
176
     1
 40
1.0
176
     1
  0
VISUALSTYLE
  5
3D
102
{ACAD_REACTORS
330
2A
102
}
330
2A
100
AcDbVisualStyle
  2
EdgeColorOff
 70
    22
177
     3
291
     1
 70
    58
 90
        2
176
     0
 90
        2
176
     0
 90
        0
176
     0
 90
        0
176
     0
 40
0.6
176
     0
 40
30.0
176
     0
 62
     7
420
 16777215
176
     0
 90
        1
176
     0
 90
        4
176
     0
 62
     7
176
     0
 62
   257
176
     0
 90
        1
176
     0
 90
        1
176
     0
 40
1.0
176
     0
 90
        8
176
     2
 62
     7
176
     0
 40
1.0
176
     0
 90
        1
176
     0
 90
        6
176
     0
 90
        2
176
     0
 62
     7
176
     0
 90
        5
176
     0
 90
        0
176
     0
 90
        0
176
     0
290
     0
176
     0
 90
        1
176
     0
 40
0.0
176
     0
 90
        0
176
     0
290
     0
176
     0
290
     1
176
     0
290
     1
176
     0
290
     0
176
     0
290
     0
176
     0
290
     0
176
     0
290
     0
176
     0
290
     0
176
     0
290
     0
176
     0
 90
       50
176
     0
 40
0.0
176
     0
 40
1.0
176
     0
 90
        0
176
     0
 62
    18
420
        0
176
     0
 90
       50
176
     0
 90
        3
176
     0
 62
     5
420
      255
176
     0
290
     0
176
     0
 90
       50
176
     0
 90
       50
176
     0
 90
       50
176
     0
290
     0
176
     0
 90
       50
176
     0
 62
   256
176
     0
 40
1.0
176
     0
 90
        2
176
     0
  1
strokes_ogs.tif
176
     0
290
     0
176
     0
 40
1.0
176
     0
 40
1.0
176
     0
  0
VISUALSTYLE
  5
39
102
{ACAD_REACTORS
330
2A
102
}
330
2A
100
AcDbVisualStyle
  2
Facepattern
 70
    15
177
     3
291
     1
 70
    58
 90
        2
176
     1
 90
        2
176
     1
 90
        0
176
     1
 90
        0
176
     1
 40
0.6
176
     1
 40
30.0
176
     1
 62
     7
420
 16777215
176
     1
 90
        1
176
     1
 90
        4
176
     1
 62
     7
176
     1
 62
   257
176
     1
 90
        1
176
     1
 90
        1
176
     1
 40
1.0
176
     1
 90
        8
176
     1
 62
     7
176
     1
 40
1.0
176
     1
 90
        1
176
     1
 90
        6
176
     1
 90
        2
176
     1
 62
     7
176
     1
 90
        5
176
     1
 90
        0
176
     1
 90
        0
176
     1
290
     0
176
     1
 90
        1
176
     1
 40
0.0
176
     1
 90
        0
176
     1
290
     0
176
     1
290
     1
176
     1
290
     1
176
     1
290
     0
176
     1
290
     0
176
     1
290
     0
176
     1
290
     0
176
     1
290
     0
176
     1
290
     0
176
     1
 90
       50
176
     1
 40
0.0
176
     1
 40
1.0
176
     1
 90
        0
176
     1
 62
    18
420
        0
176
     1
 90
       50
176
     1
 90
        3
176
     1
 62
     5
420
      255
176
     1
290
     0
176
     1
 90
       50
176
     1
 90
       50
176
     1
 90
       50
176
     1
290
     0
176
     1
 90
       50
176
     1
 62
   256
176
     0
 40
1.0
176
     0
 90
        2
176
     1
  1
strokes_ogs.tif
176
     1
290
     0
176
     1
 40
1.0
176
     1
 40
1.0
176
     1
  0
VISUALSTYLE
  5
2B
102
{ACAD_REACTORS
330
2A
102
}
330
2A
100
AcDbVisualStyle
  2
Flat
 70
     0
177
     3
291
     1
 70
    58
 90
        2
176
     1
 90
        1
176
     1
 90
        1
176
     1
 90
        2
176
     1
 40
0.6
176
     1
 40
30.0
176
     1
 62
     7
420
 16777215
176
     1
 90
        0
176
     1
 90
        0
176
     1
 62
     7
176
     1
 62
   257
176
     1
 90
        1
176
     1
 90
        1
176
     1
 40
1.0
176
     1
 90
        8
176
     1
 62
     7
176
     1
 40
1.0
176
     1
 90
        1
176
     1
 90
        6
176
     1
 90
        2
176
     1
 62
     7
176
     1
 90
        5
176
     1
 90
        0
176
     1
 90
        0
176
     1
290
     0
176
     1
 90
       13
176
     1
 40
0.0
176
     1
 90
        0
176
     1
290
     0
176
     1
290
     1
176
     1
290
     1
176
     1
290
     0
176
     1
290
     0
176
     1
290
     0
176
     1
290
     0
176
     1
290
     0
176
     1
290
     0
176
     1
 90
       50
176
     1
 40
0.0
176
     1
 40
1.0
176
     1
 90
        0
176
     1
 62
    18
420
        0
176
     1
 90
       50
176
     1
 90
        3
176
     1
 62
     5
420
      255
176
     1
290
     0
176
     1
 90
       50
176
     1
 90
       50
176
     1
 90
       50
176
     1
290
     0
176
     1
 90
       50
176
     1
 62
   256
176
     0
 40
1.0
176
     0
 90
        2
176
     1
  1
strokes_ogs.tif
176
     1
290
     0
176
     1
 40
1.0
176
     1
 40
1.0
176
     1
  0
VISUALSTYLE
  5
2C
102
{ACAD_REACTORS
330
2A
102
}
330
2A
100
AcDbVisualStyle
  2
FlatWithEdges
 70
     1
177
     3
291
     1
 70
    58
 90
        2
176
     1
 90
        1
176
     1
 90
        1
176
     1
 90
        2
176
     1
 40
0.6
176
     1
 40
30.0
176
     1
 62
     7
420
 16777215
176
     1
 90
        1
176
     1
 90
        0
176
     1
 62
     7
176
     1
 62
   257
176
     1
 90
        1
176
     1
 90
        1
176
     1
 40
1.0
176
     1
 90
        0
176
     1
 62
   257
176
     1
 40
1.0
176
     1
 90
        1
176
     1
 90
        6
176
     1
 90
        2
176
     1
 62
     7
176
     1
 90
        5
176
     1
 90
        0
176
     1
 90
        0
176
     1
290
     0
176
     1
 90
       13
176
     1
 40
0.0
176
     1
 90
        0
176
     1
290
     0
176
     1
290
     1
176
     1
290
     1
176
     1
290
     0
176
     1
290
     0
176
     1
290
     0
176
     1
290
     0
176
     1
290
     0
176
     1
290
     0
176
     1
 90
       50
176
     1
 40
0.0
176
     1
 40
1.0
176
     1
 90
        0
176
     1
 62
    18
420
        0
176
     1
 90
       50
176
     1
 90
        3
176
     1
 62
     5
420
      255
176
     1
290
     0
176
     1
 90
       50
176
     1
 90
       50
176
     1
 90
       50
176
     1
290
     0
176
     1
 90
       50
176
     1
 62
   256
176
     0
 40
1.0
176
     0
 90
        2
176
     1
  1
strokes_ogs.tif
176
     1
290
     0
176
     1
 40
1.0
176
     1
 40
1.0
176
     1
  0
VISUALSTYLE
  5
2D
102
{ACAD_REACTORS
330
2A
102
}
330
2A
100
AcDbVisualStyle
  2
Gouraud
 70
     2
177
     3
291
     1
 70
    58
 90
        2
176
     1
 90
        2
176
     1
 90
        1
176
     1
 90
        2
176
     1
 40
0.6
176
     1
 40
30.0
176
     1
 62
     7
420
 16777215
176
     1
 90
        0
176
     1
 90
        0
176
     1
 62
     7
176
     1
 62
   257
176
     1
 90
        1
176
     1
 90
        1
176
     1
 40
1.0
176
     1
 90
        0
176
     1
 62
     7
176
     1
 40
1.0
176
     1
 90
        1
176
     1
 90
        6
176
     1
 90
        2
176
     1
 62
     7
176
     1
 90
        5
176
     1
 90
        0
176
     1
 90
        0
176
     1
290
     0
176
     1
 90
       13
176
     1
 40
0.0
176
     1
 90
        0
176
     1
290
     0
176
     1
290
     1
176
     1
290
     1
176
     1
290
     0
176
     1
290
     0
176
     1
290
     0
176
     1
290
     0
176
     1
290
     0
176
     1
290
     0
176
     1
 90
       50
176
     1
 40
0.0
176
     1
 40
1.0
176
     1
 90
        0
176
     1
 62
    18
420
        0
176
     1
 90
       50
176
     1
 90
        3
176
     1
 62
     5
420
      255
176
     1
290
     0
176
     1
 90
       50
176
     1
 90
       50
176
     1
 90
       50
176
     1
290
     0
176
     1
 90
       50
176
     1
 62
   256
176
     0
 40
1.0
176
     0
 90
        2
176
     1
  1
strokes_ogs.tif
176
     1
290
     0
176
     1
 40
1.0
176
     1
 40
1.0
176
     1
  0
VISUALSTYLE
  5
2E
102
{ACAD_REACTORS
330
2A
102
}
330
2A
100
AcDbVisualStyle
  2
GouraudWithEdges
 70
     3
177
     3
291
     1
 70
    58
 90
        2
176
     1
 90
        2
176
     1
 90
        1
176
     1
 90
        2
176
     1
 40
0.6
176
     1
 40
30.0
176
     1
 62
     7
420
 16777215
176
     1
 90
        1
176
     1
 90
        0
176
     1
 62
     7
176
     1
 62
   257
176
     1
 90
        1
176
     1
 90
        1
176
     1
 40
1.0
176
     1
 90
        0
176
     1
 62
   257
176
     1
 40
1.0
176
     1
 90
        1
176
     1
 90
        6
176
     1
 90
        2
176
     1
 62
     7
176
     1
 90
        5
176
     1
 90
        0
176
     1
 90
        0
176
     1
290
     0
176
     1
 90
       13
176
     1
 40
0.0
176
     1
 90
        0
176
     1
290
     0
176
     1
290
     1
176
     1
290
     1
176
     1
290
     0
176
     1
290
     0
176
     1
290
     0
176
     1
290
     0
176
     1
290
     0
176
     1
290
     0
176
     1
 90
       50
176
     1
 40
0.0
176
     1
 40
1.0
176
     1
 90
        0
176
     1
 62
    18
420
        0
176
     1
 90
       50
176
     1
 90
        3
176
     1
 62
     5
420
      255
176
     1
290
     0
176
     1
 90
       50
176
     1
 90
       50
176
     1
 90
       50
176
     1
290
     0
176
     1
 90
       50
176
     1
 62
   256
176
     0
 40
1.0
176
     0
 90
        2
176
     1
  1
strokes_ogs.tif
176
     1
290
     0
176
     1
 40
1.0
176
     1
 40
1.0
176
     1
  0
VISUALSTYLE
  5
31
102
{ACAD_REACTORS
330
2A
102
}
330
2A
100
AcDbVisualStyle
  2
Hidden
 70
     6
177
     3
291
     0
 70
    58
 90
        1
176
     1
 90
        2
176
     1
 90
        2
176
     1
 90
        0
176
     1
 40
0.6
176
     1
 40
30.0
176
     1
 62
     7
420
 16777215
176
     1
 90
        2
176
     1
 90
        2
176
     1
 62
     7
176
     1
 62
   257
176
     1
 90
        2
176
     1
 90
        1
176
     1
 40
40.0
176
     1
 90
        0
176
     1
 62
   257
176
     1
 40
1.0
176
     1
 90
        1
176
     1
 90
        6
176
     1
 90
        2
176
     1
 62
     7
176
     1
 90
        3
176
     1
 90
        0
176
     1
 90
        0
176
     1
290
     0
176
     1
 90
        1
176
     1
 40
0.0
176
     1
 90
        0
176
     1
290
     0
176
     1
290
     1
176
     1
290
     1
176
     1
290
     0
176
     1
290
     0
176
     1
290
     0
176
     1
290
     0
176
     1
290
     0
176
     1
290
     0
176
     1
 90
       50
176
     1
 40
0.0
176
     1
 40
1.0
176
     1
 90
        0
176
     1
 62
    18
420
        0
176
     1
 90
       50
176
     1
 90
        3
176
     1
 62
     5
420
      255
176
     1
290
     0
176
     1
 90
       50
176
     1
 90
       50
176
     1
 90
       50
176
     1
290
     0
176
     1
 90
       50
176
     1
 62
   256
176
     0
 40
1.0
176
     0
 90
        2
176
     1
  1
strokes_ogs.tif
176
     1
290
     0
176
     1
 40
1.0
176
     1
 40
1.0
176
     1
  0
VISUALSTYLE
  5
3B
102
{ACAD_REACTORS
330
2A
102
}
330
2A
100
AcDbVisualStyle
  2
JitterOff
 70
    20
177
     3
291
     1
 70
    58
 90
        2
176
     0
 90
        2
176
     0
 90
        0
176
     0
 90
        0
176
     0
 40
0.6
176
     0
 40
30.0
176
     0
 62
     7
420
 16777215
176
     0
 90
        1
176
     0
 90
        4
176
     0
 62
     7
176
     0
 62
   257
176
     0
 90
        1
176
     0
 90
        1
176
     0
 40
1.0
176
     0
 90
       10
176
     2
 62
     7
176
     0
 40
1.0
176
     0
 90
        1
176
     0
 90
        6
176
     0
 90
        2
176
     0
 62
     7
176
     0
 90
        5
176
     0
 90
        0
176
     0
 90
        0
176
     0
290
     0
176
     0
 90
        1
176
     0
 40
0.0
176
     0
 90
        0
176
     0
290
     0
176
     0
290
     1
176
     0
290
     1
176
     0
290
     0
176
     0
290
     0
176
     0
290
     0
176
     0
290
     0
176
     0
290
     0
176
     0
290
     0
176
     0
 90
       50
176
     0
 40
0.0
176
     0
 40
1.0
176
     0
 90
        0
176
     0
 62
    18
420
        0
176
     0
 90
       50
176
     0
 90
        3
176
     0
 62
     5
420
      255
176
     0
290
     0
176
     0
 90
       50
176
     0
 90
       50
176
     0
 90
       50
176
     0
290
     0
176
     0
 90
       50
176
     0
 62
   256
176
     0
 40
1.0
176
     0
 90
        2
176
     0
  1
strokes_ogs.tif
176
     0
290
     0
176
     0
 40
1.0
176
     0
 40
1.0
176
     0
  0
VISUALSTYLE
  5
38
102
{ACAD_REACTORS
330
2A
102
}
330
2A
100
AcDbVisualStyle
  2
Linepattern
 70
    14
177
     3
291
     1
 70
    58
 90
        2
176
     1
 90
        2
176
     1
 90
        0
176
     1
 90
        0
176
     1
 40
0.6
176
     1
 40
30.0
176
     1
 62
     7
420
 16777215
176
     1
 90
        1
176
     1
 90
        4
176
     1
 62
     7
176
     1
 62
   257
176
     1
 90
        7
176
     1
 90
        7
176
     1
 40
1.0
176
     1
 90
        8
176
     1
 62
     7
176
     1
 40
1.0
176
     1
 90
        1
176
     1
 90
        6
176
     1
 90
        2
176
     1
 62
     7
176
     1
 90
        5
176
     1
 90
        0
176
     1
 90
        0
176
     1
290
     0
176
     1
 90
        1
176
     1
 40
0.0
176
     1
 90
        0
176
     1
290
     0
176
     1
290
     1
176
     1
290
     1
176
     1
290
     0
176
     1
290
     0
176
     1
290
     0
176
     1
290
     0
176
     1
290
     0
176
     1
290
     0
176
     1
 90
       50
176
     1
 40
0.0
176
     1
 40
1.0
176
     1
 90
        0
176
     1
 62
    18
420
        0
176
     1
 90
       50
176
     1
 90
        3
176
     1
 62
     5
420
      255
176
     1
290
     0
176
     1
 90
       50
176
     1
 90
       50
176
     1
 90
       50
176
     1
290
     0
176
     1
 90
       50
176
     1
 62
   256
176
     0
 40
1.0
176
     0
 90
        2
176
     1
  1
strokes_ogs.tif
176
     1
290
     0
176
     1
 40
1.0
176
     1
 40
1.0
176
     1
  0
VISUALSTYLE
  5
3C
102
{ACAD_REACTORS
330
2A
102
}
330
2A
100
AcDbVisualStyle
  2
OverhangOff
 70
    21
177
     3
291
     1
 70
    58
 90
        2
176
     0
 90
        2
176
     0
 90
        0
176
     0
 90
        0
176
     0
 40
0.6
176
     0
 40
30.0
176
     0
 62
     7
420
 16777215
176
     0
 90
        1
176
     0
 90
        4
176
     0
 62
     7
176
     0
 62
   257
176
     0
 90
        1
176
     0
 90
        1
176
     0
 40
1.0
176
     0
 90
        9
176
     2
 62
     7
176
     0
 40
1.0
176
     0
 90
        1
176
     0
 90
        6
176
     0
 90
        2
176
     0
 62
     7
176
     0
 90
        5
176
     0
 90
        0
176
     0
 90
        0
176
     0
290
     0
176
     0
 90
        1
176
     0
 40
0.0
176
     0
 90
        0
176
     0
290
     0
176
     0
290
     1
176
     0
290
     1
176
     0
290
     0
176
     0
290
     0
176
     0
290
     0
176
     0
290
     0
176
     0
290
     0
176
     0
290
     0
176
     0
 90
       50
176
     0
 40
0.0
176
     0
 40
1.0
176
     0
 90
        0
176
     0
 62
    18
420
        0
176
     0
 90
       50
176
     0
 90
        3
176
     0
 62
     5
420
      255
176
     0
290
     0
176
     0
 90
       50
176
     0
 90
       50
176
     0
 90
       50
176
     0
290
     0
176
     0
 90
       50
176
     0
 62
   256
176
     0
 40
1.0
176
     0
 90
        2
176
     0
  1
strokes_ogs.tif
176
     0
290
     0
176
     0
 40
1.0
176
     0
 40
1.0
176
     0
  0
VISUALSTYLE
  5
33
102
{ACAD_REACTORS
330
2A
102
}
330
2A
100
AcDbVisualStyle
  2
Realistic
 70
     8
177
     3
291
     0
 70
    58
 90
        2
176
     1
 90
        3
176
     1
 90
        0
176
     1
 90
        2
176
     1
 40
0.6
176
     1
 40
30.0
176
     1
 62
     7
420
 16777215
176
     1
 90
        0
176
     1
 90
        0
176
     1
 62
     7
176
     1
 62
   257
176
     1
 90
        1
176
     1
 90
        1
176
     1
 40
1.0
176
     1
 90
        8
176
     1
 62
   257
176
     1
 40
1.0
176
     1
 90
        1
176
     1
 90
        6
176
     1
 90
        2
176
     1
 62
     7
176
     1
 90
        3
176
     1
 90
        0
176
     1
 90
        0
176
     1
290
     0
176
     1
 90
       13
176
     1
 40
0.0
176
     1
 90
        0
176
     1
290
     0
176
     1
290
     1
176
     1
290
     1
176
     1
290
     0
176
     1
290
     0
176
     1
290
     0
176
     1
290
     0
176
     1
290
     0
176
     1
290
     0
176
     1
 90
       50
176
     1
 40
0.0
176
     1
 40
1.0
176
     1
 90
        0
176
     1
 62
    18
420
        0
176
     1
 90
       50
176
     1
 90
        3
176
     1
 62
     5
420
      255
176
     1
290
     0
176
     1
 90
       50
176
     1
 90
       50
176
     1
 90
       50
176
     1
290
     0
176
     1
 90
       50
176
     1
 62
   256
176
     0
 40
1.0
176
     0
 90
        2
176
     1
  1
strokes_ogs.tif
176
     1
290
     0
176
     1
 40
1.0
176
     1
 40
1.0
176
     1
  0
VISUALSTYLE
  5
42
102
{ACAD_REACTORS
330
2A
102
}
330
2A
100
AcDbVisualStyle
  2
Shaded
 70
    27
177
     3
291
     0
 70
    58
 90
        2
176
     1
 90
        2
176
     1
 90
        1
176
     1
 90
        2
176
     1
 40
0.6
176
     1
 40
30.0
176
     1
 62
     7
420
 16777215
176
     1
 90
        0
176
     1
 90
        4
176
     1
 62
     7
176
     1
 62
   257
176
     1
 90
        1
176
     1
 90
        1
176
     1
 40
1.0
176
     1
 90
        8
176
     1
 62
   257
176
     1
 40
1.0
176
     1
 90
        1
176
     1
 90
        6
176
     1
 90
        2
176
     1
 62
     8
420
  7895160
176
     1
 90
        3
176
     1
 90
        0
176
     1
 90
        0
176
     1
290
     0
176
     1
 90
        5
176
     1
 40
0.0
176
     1
 90
        0
176
     1
290
     0
176
     1
290
     1
176
     1
290
     1
176
     1
290
     0
176
     1
290
     0
176
     1
290
     0
176
     1
290
     0
176
     1
290
     0
176
     1
290
     0
176
     1
 90
       50
176
     1
 40
0.0
176
     1
 40
1.0
176
     1
 90
        0
176
     1
 62
    18
420
        0
176
     1
 90
       50
176
     1
 90
        3
176
     1
 62
     5
420
      255
176
     1
290
     0
176
     1
 90
       50
176
     1
 90
       50
176
     1
 90
       50
176
     1
290
     0
176
     1
 90
       50
176
     1
 62
   256
176
     0
 40
1.0
176
     0
 90
        2
176
     1
  1
strokes_ogs.tif
176
     1
290
     0
176
     1
 40
1.0
176
     1
 40
1.0
176
     1
  0
VISUALSTYLE
  5
41
102
{ACAD_REACTORS
330
2A
102
}
330
2A
100
AcDbVisualStyle
  2
Shaded with edges
 70
    26
177
     3
291
     0
 70
    58
 90
        2
176
     1
 90
        2
176
     1
 90
        1
176
     1
 90
        2
176
     1
 40
0.6
176
     1
 40
30.0
176
     1
 62
     7
420
 16777215
176
     1
 90
        1
176
     1
 90
       10
176
     1
 62
     7
176
     1
 62
   257
176
     1
 90
        2
176
     1
 90
        1
176
     1
 40
1.0
176
     1
 90
        8
176
     1
 62
   257
176
     1
 40
1.0
176
     1
 90
        1
176
     1
 90
        6
176
     1
 90
        2
176
     1
 62
     7
176
     1
 90
        3
176
     1
 90
        0
176
     1
 90
        0
176
     1
290
     0
176
     1
 90
        5
176
     1
 40
0.0
176
     1
 90
        0
176
     1
290
     0
176
     1
290
     1
176
     1
290
     1
176
     1
290
     0
176
     1
290
     0
176
     1
290
     0
176
     1
290
     0
176
     1
290
     0
176
     1
290
     0
176
     1
 90
       50
176
     1
 40
0.0
176
     1
 40
1.0
176
     1
 90
        0
176
     1
 62
    18
420
        0
176
     1
 90
       50
176
     1
 90
        3
176
     1
 62
     5
420
      255
176
     1
290
     0
176
     1
 90
       50
176
     1
 90
       50
176
     1
 90
       50
176
     1
290
     0
176
     1
 90
       50
176
     1
 62
   256
176
     0
 40
1.0
176
     0
 90
        2
176
     1
  1
strokes_ogs.tif
176
     1
290
     0
176
     1
 40
1.0
176
     1
 40
1.0
176
     1
  0
VISUALSTYLE
  5
3E
102
{ACAD_REACTORS
330
2A
102
}
330
2A
100
AcDbVisualStyle
  2
Shades of Gray
 70
    23
177
     3
291
     0
 70
    58
 90
        2
176
     1
 90
        2
176
     1
 90
        3
176
     1
 90
        0
176
     1
 40
0.6
176
     1
 40
30.0
176
     1
 62
     7
420
 16777215
176
     1
 90
        2
176
     1
 90
        2
176
     1
 62
     7
176
     1
 62
     7
176
     1
 90
        1
176
     1
 90
        1
176
     1
 40
40.0
176
     1
 90
        8
176
     1
 62
     7
176
     1
 40
1.0
176
     1
 90
        1
176
     1
 90
        6
176
     1
 90
        2
176
     1
 62
     7
176
     1
 90
        3
176
     1
 90
        0
176
     1
 90
        0
176
     1
290
     0
176
     1
 90
        1
176
     1
 40
0.0
176
     1
 90
        0
176
     1
290
     0
176
     1
290
     1
176
     1
290
     1
176
     1
290
     0
176
     1
290
     0
176
     1
290
     0
176
     1
290
     0
176
     1
290
     0
176
     1
290
     0
176
     1
 90
       50
176
     1
 40
0.0
176
     1
 40
1.0
176
     1
 90
        0
176
     1
 62
    18
420
        0
176
     1
 90
       50
176
     1
 90
        3
176
     1
 62
     5
420
      255
176
     1
290
     0
176
     1
 90
       50
176
     1
 90
       50
176
     1
 90
       50
176
     1
290
     0
176
     1
 90
       50
176
     1
 62
   256
176
     0
 40
1.0
176
     0
 90
        2
176
     1
  1
strokes_ogs.tif
176
     1
290
     0
176
     1
 40
1.0
176
     1
 40
1.0
176
     1
  0
VISUALSTYLE
  5
3F
102
{ACAD_REACTORS
330
2A
102
}
330
2A
100
AcDbVisualStyle
  2
Sketchy
 70
    24
177
     3
291
     0
 70
    58
 90
        1
176
     1
 90
        2
176
     1
 90
        2
176
     1
 90
        0
176
     1
 40
0.6
176
     1
 40
30.0
176
     1
 62
     7
420
 16777215
176
     1
 90
        2
176
     1
 90
        2
176
     1
 62
     7
176
     1
 62
     7
176
     1
 90
        1
176
     1
 90
        1
176
     1
 40
40.0
176
     1
 90
       11
176
     1
 62
     7
176
     1
 40
1.0
176
     1
 90
        1
176
     1
 90
        6
176
     1
 90
        2
176
     1
 62
     7
176
     1
 90
        6
176
     1
 90
        0
176
     1
 90
        0
176
     1
290
     0
176
     1
 90
        1
176
     1
 40
0.0
176
     1
 90
        0
176
     1
290
     0
176
     1
290
     1
176
     1
290
     1
176
     1
290
     0
176
     1
290
     0
176
     1
290
     0
176
     1
290
     0
176
     1
290
     0
176
     1
290
     0
176
     1
 90
       50
176
     1
 40
0.0
176
     1
 40
1.0
176
     1
 90
        0
176
     1
 62
    18
420
        0
176
     1
 90
       50
176
     1
 90
        3
176
     1
 62
     5
420
      255
176
     1
290
     0
176
     1
 90
       50
176
     1
 90
       50
176
     1
 90
       50
176
     1
290
     0
176
     1
 90
       50
176
     1
 62
   256
176
     0
 40
1.0
176
     0
 90
        2
176
     1
  1
strokes_ogs.tif
176
     1
290
     0
176
     1
 40
1.0
176
     1
 40
1.0
176
     1
  0
VISUALSTYLE
  5
37
102
{ACAD_REACTORS
330
2A
102
}
330
2A
100
AcDbVisualStyle
  2
Thicken
 70
    13
177
     3
291
     1
 70
    58
 90
        2
176
     1
 90
        2
176
     1
 90
        0
176
     1
 90
        0
176
     1
 40
0.6
176
     1
 40
30.0
176
     1
 62
     7
420
 16777215
176
     1
 90
        1
176
     1
 90
        4
176
     1
 62
     7
176
     1
 62
   257
176
     1
 90
        1
176
     1
 90
        1
176
     1
 40
1.0
176
     1
 90
       12
176
     1
 62
     7
176
     1
 40
1.0
176
     1
 90
        1
176
     1
 90
        6
176
     1
 90
        2
176
     1
 62
     7
176
     1
 90
        5
176
     1
 90
        0
176
     1
 90
        0
176
     1
290
     0
176
     1
 90
        1
176
     1
 40
0.0
176
     1
 90
        0
176
     1
290
     0
176
     1
290
     1
176
     1
290
     1
176
     1
290
     0
176
     1
290
     0
176
     1
290
     0
176
     1
290
     0
176
     1
290
     0
176
     1
290
     0
176
     1
 90
       50
176
     1
 40
0.0
176
     1
 40
1.0
176
     1
 90
        0
176
     1
 62
    18
420
        0
176
     1
 90
       50
176
     1
 90
        3
176
     1
 62
     5
420
      255
176
     1
290
     0
176
     1
 90
       50
176
     1
 90
       50
176
     1
 90
       50
176
     1
290
     0
176
     1
 90
       50
176
     1
 62
   256
176
     0
 40
1.0
176
     0
 90
        2
176
     1
  1
strokes_ogs.tif
176
     1
290
     0
176
     1
 40
1.0
176
     1
 40
1.0
176
     1
  0
VISUALSTYLE
  5
30
102
{ACAD_REACTORS
330
2A
102
}
330
2A
100
AcDbVisualStyle
  2
Wireframe
 70
     5
177
     3
291
     0
 70
    58
 90
        0
176
     1
 90
        2
176
     1
 90
        0
176
     1
 90
        0
176
     1
 40
0.6
176
     1
 40
30.0
176
     1
 62
     7
420
 16777215
176
     1
 90
        1
176
     1
 90
        4
176
     1
 62
     7
176
     1
 62
   257
176
     1
 90
        1
176
     1
 90
        1
176
     1
 40
1.0
176
     1
 90
        0
176
     1
 62
   257
176
     1
 40
1.0
176
     1
 90
        1
176
     1
 90
        6
176
     1
 90
        2
176
     1
 62
     7
176
     1
 90
        3
176
     1
 90
        0
176
     1
 90
        0
176
     1
290
     0
176
     1
 90
        1
176
     1
 40
0.0
176
     1
 90
        0
176
     1
290
     0
176
     1
290
     1
176
     1
290
     1
176
     1
290
     0
176
     1
290
     0
176
     1
290
     0
176
     1
290
     0
176
     1
290
     0
176
     1
290
     0
176
     1
 90
       50
176
     1
 40
0.0
176
     1
 40
1.0
176
     1
 90
        0
176
     1
 62
    18
420
        0
176
     1
 90
       50
176
     1
 90
        3
176
     1
 62
     5
420
      255
176
     1
290
     0
176
     1
 90
       50
176
     1
 90
       50
176
     1
 90
       50
176
     1
290
     0
176
     1
 90
       50
176
     1
 62
   256
176
     0
 40
1.0
176
     0
 90
        2
176
     1
  1
strokes_ogs.tif
176
     1
290
     0
176
     1
 40
1.0
176
     1
 40
1.0
176
     1
  0
VISUALSTYLE
  5
40
102
{ACAD_REACTORS
330
2A
102
}
330
2A
100
AcDbVisualStyle
  2
X-Ray
 70
    25
177
     3
291
     0
 70
    58
 90
        2
176
     1
 90
        2
176
     1
 90
        1
176
     1
 90
        1
176
     1
 40
0.5
176
     1
 40
30.0
176
     1
 62
     7
420
 16777215
176
     1
 90
        1
176
     1
 90
        0
176
     1
 62
     7
176
     1
 62
   257
176
     1
 90
        1
176
     1
 90
        1
176
     1
 40
1.0
176
     1
 90
        8
176
     1
 62
     7
176
     1
 40
1.0
176
     1
 90
        1
176
     1
 90
        6
176
     1
 90
        2
176
     1
 62
     7
176
     1
 90
        3
176
     1
 90
        0
176
     1
 90
        0
176
     1
290
     0
176
     1
 90
       13
176
     1
 40
0.0
176
     1
 90
        0
176
     1
290
     0
176
     1
290
     1
176
     1
290
     1
176
     1
290
     0
176
     1
290
     0
176
     1
290
     0
176
     1
290
     0
176
     1
290
     0
176
     1
290
     0
176
     1
 90
       50
176
     1
 40
0.0
176
     1
 40
1.0
176
     1
 90
        0
176
     1
 62
    18
420
        0
176
     1
 90
       50
176
     1
 90
        3
176
     1
 62
     5
420
      255
176
     1
290
     0
176
     1
 90
       50
176
     1
 90
       50
176
     1
 90
       50
176
     1
290
     0
176
     1
 90
       50
176
     1
 62
   256
176
     0
 40
1.0
176
     0
 90
        2
176
     1
  1
strokes_ogs.tif
176
     1
290
     0
176
     1
 40
1.0
176
     1
 40
1.0
176
     1
  0
DICTIONARYVAR
  5
EB
102
{ACAD_REACTORS
330
EA
102
}
330
EA
100
DictionaryVariables
280
     0
  1
1:1
  0
DICTIONARYVAR
  5
F0
102
{ACAD_REACTORS
330
EA
102
}
330
EA
100
DictionaryVariables
280
     0
  1
Standard
  0
DICTIONARYVAR
  5
EF
102
{ACAD_REACTORS
330
EA
102
}
330
EA
100
DictionaryVariables
280
     0
  1
Standard
  0
DICTIONARY
  5
EC
330
6A
100
AcDbDictionary
280
     1
281
     1
  3
ACAD_ROUNDTRIP_2008_TABLESTYLE_CELLSTYLEMAP
360
ED
  0
CELLSTYLEMAP
  5
ED
102
{ACAD_REACTORS
330
EC
102
}
330
EC
100
AcDbCellStyleMap
 90
        3
300
CELLSTYLE
  1
TABLEFORMAT_BEGIN
 90
        5
170
     1
 91
        0
 92
    32768
 62
   257
 93
        1
300
CONTENTFORMAT
  1
CONTENTFORMAT_BEGIN
 90
        0
 91
        0
 92
        4
 93
        0
300

 40
0.0
140
1.0
 94
        5
 62
     0
340
11
144
0.25
309
CONTENTFORMAT_END
171
     1
301
MARGIN
  1
CELLMARGIN_BEGIN
 40
0.06
 40
0.06
 40
0.06
 40
0.06
 40
0.06
 40
0.06
309
CELLMARGIN_END
 94
        6
 95
        1
302
GRIDFORMAT
  1
GRIDFORMAT_BEGIN
 90
        0
 91
        1
 62
     0
 92
       -2
340
14
 93
        0
 40
0.045
309
GRIDFORMAT_END
 95
        2
302
GRIDFORMAT
  1
GRIDFORMAT_BEGIN
 90
        0
 91
        1
 62
     0
 92
       -2
340
14
 93
        0
 40
0.045
309
GRIDFORMAT_END
 95
        4
302
GRIDFORMAT
  1
GRIDFORMAT_BEGIN
 90
        0
 91
        1
 62
     0
 92
       -2
340
14
 93
        0
 40
0.045
309
GRIDFORMAT_END
 95
        8
302
GRIDFORMAT
  1
GRIDFORMAT_BEGIN
 90
        0
 91
        1
 62
     0
 92
       -2
340
14
 93
        0
 40
0.045
309
GRIDFORMAT_END
 95
       16
302
GRIDFORMAT
  1
GRIDFORMAT_BEGIN
 90
        0
 91
        1
 62
     0
 92
       -2
340
14
 93
        0
 40
0.045
309
GRIDFORMAT_END
 95
       32
302
GRIDFORMAT
  1
GRIDFORMAT_BEGIN
 90
        0
 91
        1
 62
     0
 92
       -2
340
14
 93
        0
 40
0.045
309
GRIDFORMAT_END
309
TABLEFORMAT_END
  1
CELLSTYLE_BEGIN
 90
        1
 91
        1
300
_TITLE
309
CELLSTYLE_END
300
CELLSTYLE
  1
TABLEFORMAT_BEGIN
 90
        5
170
     1
 91
        0
 92
        0
 62
   257
 93
        1
300
CONTENTFORMAT
  1
CONTENTFORMAT_BEGIN
 90
        0
 91
        0
 92
        4
 93
        0
300

 40
0.0
140
1.0
 94
        5
 62
     0
340
11
144
0.18
309
CONTENTFORMAT_END
171
     1
301
MARGIN
  1
CELLMARGIN_BEGIN
 40
0.06
 40
0.06
 40
0.06
 40
0.06
 40
0.06
 40
0.06
309
CELLMARGIN_END
 94
        6
 95
        1
302
GRIDFORMAT
  1
GRIDFORMAT_BEGIN
 90
        0
 91
        1
 62
     0
 92
       -2
340
14
 93
        0
 40
0.045
309
GRIDFORMAT_END
 95
        2
302
GRIDFORMAT
  1
GRIDFORMAT_BEGIN
 90
        0
 91
        1
 62
     0
 92
       -2
340
14
 93
        0
 40
0.045
309
GRIDFORMAT_END
 95
        4
302
GRIDFORMAT
  1
GRIDFORMAT_BEGIN
 90
        0
 91
        1
 62
     0
 92
       -2
340
14
 93
        0
 40
0.045
309
GRIDFORMAT_END
 95
        8
302
GRIDFORMAT
  1
GRIDFORMAT_BEGIN
 90
        0
 91
        1
 62
     0
 92
       -2
340
14
 93
        0
 40
0.045
309
GRIDFORMAT_END
 95
       16
302
GRIDFORMAT
  1
GRIDFORMAT_BEGIN
 90
        0
 91
        1
 62
     0
 92
       -2
340
14
 93
        0
 40
0.045
309
GRIDFORMAT_END
 95
       32
302
GRIDFORMAT
  1
GRIDFORMAT_BEGIN
 90
        0
 91
        1
 62
     0
 92
       -2
340
14
 93
        0
 40
0.045
309
GRIDFORMAT_END
309
TABLEFORMAT_END
  1
CELLSTYLE_BEGIN
 90
        2
 91
        1
300
_HEADER
309
CELLSTYLE_END
300
CELLSTYLE
  1
TABLEFORMAT_BEGIN
 90
        5
170
     1
 91
        0
 92
        0
 62
   257
 93
        1
300
CONTENTFORMAT
  1
CONTENTFORMAT_BEGIN
 90
        0
 91
        0
 92
        4
 93
        0
300

 40
0.0
140
1.0
 94
        2
 62
     0
340
11
144
0.18
309
CONTENTFORMAT_END
171
     1
301
MARGIN
  1
CELLMARGIN_BEGIN
 40
0.06
 40
0.06
 40
0.06
 40
0.06
 40
0.06
 40
0.06
309
CELLMARGIN_END
 94
        6
 95
        1
302
GRIDFORMAT
  1
GRIDFORMAT_BEGIN
 90
        0
 91
        1
 62
     0
 92
       -2
340
14
 93
        0
 40
0.045
309
GRIDFORMAT_END
 95
        2
302
GRIDFORMAT
  1
GRIDFORMAT_BEGIN
 90
        0
 91
        1
 62
     0
 92
       -2
340
14
 93
        0
 40
0.045
309
GRIDFORMAT_END
 95
        4
302
GRIDFORMAT
  1
GRIDFORMAT_BEGIN
 90
        0
 91
        1
 62
     0
 92
       -2
340
14
 93
        0
 40
0.045
309
GRIDFORMAT_END
 95
        8
302
GRIDFORMAT
  1
GRIDFORMAT_BEGIN
 90
        0
 91
        1
 62
     0
 92
       -2
340
14
 93
        0
 40
0.045
309
GRIDFORMAT_END
 95
       16
302
GRIDFORMAT
  1
GRIDFORMAT_BEGIN
 90
        0
 91
        1
 62
     0
 92
       -2
340
14
 93
        0
 40
0.045
309
GRIDFORMAT_END
 95
       32
302
GRIDFORMAT
  1
GRIDFORMAT_BEGIN
 90
        0
 91
        1
 62
     0
 92
       -2
340
14
 93
        0
 40
0.045
309
GRIDFORMAT_END
309
TABLEFORMAT_END
  1
CELLSTYLE_BEGIN
 90
        3
 91
        2
300
_DATA
309
CELLSTYLE_END
  0
ENDSEC
  0
EOF
