  0
SECTION
  2
ENTITIES
  0
ARC
  8
APS_GEOMETRY
 10
-16.674632
 20
73.685622
 40
6.105738
 50
201.011977
 51
231.064793
  0
ARC
  8
APS_GEOMETRY
 10
-15.027629
 20
75.918069
 40
8.878144
 50
231.851051
 51
256.598227
  0
ARC
  8
APS_GEOMETRY
 10
-14.742906
 20
75.646374
 40
8.686494
 50
254.355408
 51
276.161541
  0
ARC
  8
APS_GEOMETRY
 10
-14.491289
 20
77.923322
 40
10.934471
 50
273.569236
 51
289.073027
  0
ARC
  8
APS_GEOMETRY
 10
-13.358224
 20
74.634826
 40
7.45625
 50
289.101682
 51
316.443609
  0
ARC
  8
APS_GEOMETRY
 10
-14.513653
 20
74.818068
 40
8.445944
 50
320.948463
 51
340.20558
  0
ARC
  8
APS_GEOMETRY
 10
-11.664799
 20
73.571821
 40
5.347423
 50
342.433254
 51
13.308554
  0
ARC
  8
APS_GEOMETRY
 10
-12.450974
 20
73.355528
 40
6.162345
 50
13.582944
 51
40.534827
  0
ARC
  8
APS_GEOMETRY
 10
-12.717228
 20
73.057656
 40
6.558508
 50
41.00086
 51
67.184064
  0
ARC
  8
APS_GEOMETRY
 10
-14.478293
 20
69.183509
 40
10.813092
 50
66.542977
 51
83.086145
  0
ARC
  8
APS_GEOMETRY
 10
-14.566599
 20
66.269006
 40
13.719555
 50
84.185286
 51
96.112388
  0
ARC
  8
APS_GEOMETRY
 10
-14.273928
 20
66.984408
 40
13.044553
 50
97.725384
 51
109.483568
  0
ARC
  8
APS_GEOMETRY
 10
-16.481763
 20
73.298964
 40
6.355241
 50
109.706491
 51
138.371963
  0
ARC
  8
APS_GEOMETRY
 10
-16.811756
 20
73.358419
 40
6.0716
 50
136.722481
 51
165.005981
  0
ARC
  8
APS_GEOMETRY
 10
-17.168935
 20
73.788034
 40
5.624691
 50
168.29373
 51
175.116805
  0
ARC
  8
APS_GEOMETRY
 10
-17.942152
 20
73.548346
 40
4.884193
 50
171.540819
 51
204.843067
  0
LINE
  8
APS_GEOMETRY
 10
-22.825783
 11
-20.639974
 20
73.474221
 21
73.474221
  0
LINE
  8
APS_GEOMETRY
 10
-17.618664
 11
-6.318267
 20
73.474221
 21
73.474221
  0
LINE
  8
APS_GEOMETRY
 10
-14.602239
 11
-14.599197
 20
79.988516
 21
78.683824
  0
LINE
  8
APS_GEOMETRY
 10
-14.591701
 11
-14.571865
 20
75.469028
 21
66.961564
  0
LINE
  8
CONSTRUCTION
 10
-20.116794
 11
-20.031013
 20
73.234071
 21
73.234071
  0
LINE
  8
CONSTRUCTION
 10
-20.031013
 11
-19.945232
 20
73.234071
 21
73.234071
  0
LINE
  8
CONSTRUCTION
 10
-20.031013
 11
-20.031013
 20
73.234071
 21
73.734071
  0
LINE
  8
CONSTRUCTION
 10
-20.031013
 11
-20.116794
 20
73.734071
 21
73.64829
  0
ARC
  8
CONSTRUCTION
 10
-19.644345
 20
73.571132
 40
0.1637
 50
38.687092
 51
141.311843
  0
ARC
  8
CONSTRUCTION
 10
-19.535612
 20
73.481793
 40
0.304422
 50
140.979262
 51
219.021887
  0
ARC
  8
CONSTRUCTION
 10
-19.644342
 20
73.392449
 40
0.1637
 50
218.688216
 51
321.311676
  0
ARC
  8
CONSTRUCTION
 10
-19.619392
 20
73.373457
 40
0.132356
 50
320.977916
 51
39.022283
  0
ARC
  8
CONSTRUCTION
 10
-19.652677
 20
73.347791
 40
0.174378
 50
38.687897
 51
141.311964
  0
ARC
  8
CONSTRUCTION
 10
-19.664415
 20
73.355584
 40
0.16035
 50
140.8638
 51
169.5859
  0
CIRCLE
  8
CONSTRUCTION
 10
-19.343087
 20
73.284261
 40
0.05
  0
ARC
  8
CONSTRUCTION
 10
-19.018429
 20
73.417449
 40
0.186567
 50
202.7274
 51
247.2726
  0
ARC
  8
CONSTRUCTION
 10
-19.015509
 20
73.420865
 40
0.19085
 50
246.860287
 51
293.140726
  0
ARC
  8
CONSTRUCTION
 10
-19.011467
 20
73.413177
 40
0.182194
 50
292.922067
 51
357.893283
  0
ARC
  8
CONSTRUCTION
 10
-18.993423
 20
73.412227
 40
0.164128
 50
357.993348
 51
71.191207
  0
ARC
  8
CONSTRUCTION
 10
-19.015517
 20
73.347006
 40
0.232989
 50
71.219129
 51
108.775441
  0
ARC
  8
CONSTRUCTION
 10
-19.030267
 20
73.386972
 40
0.190406
 50
108.443904
 51
138.941081
  0
LINE
  8
CONSTRUCTION
 10
-19.17384
 11
-19.134951
 20
73.512037
 21
73.73426
  0
LINE
  8
CONSTRUCTION
 10
-19.134951
 11
-18.884951
 20
73.73426
 21
73.73426
  0
ARC
  8
CONSTRUCTION
 10
-18.533533
 20
73.391673
 40
0.1637
 50
218.6887
 51
321.3113
  0
ARC
  8
CONSTRUCTION
 10
-18.642264
 20
73.481015
 40
0.304422
 50
320.978113
 51
39.020738
  0
ARC
  8
CONSTRUCTION
 10
-18.53353
 20
73.570354
 40
0.1637
 50
38.688157
 51
141.312908
  0
ARC
  8
CONSTRUCTION
 10
-18.424799
 20
73.481012
 40
0.304422
 50
140.978975
 51
219.021025
  0
LINE
  8
CONSTRUCTION
 10
-18.184438
 11
-18.209438
 20
73.711597
 21
73.711597
  0
LINE
  8
CONSTRUCTION
 10
-18.209438
 11
-18.209438
 20
73.711597
 21
73.736597
  0
LINE
  8
CONSTRUCTION
 10
-18.209438
 11
-18.184438
 20
73.736597
 21
73.736597
  0
LINE
  8
CONSTRUCTION
 10
-18.184438
 11
-18.184438
 20
73.736597
 21
73.676597
  0
LINE
  8
CONSTRUCTION
 10
-18.184438
 11
-18.189438
 20
73.676597
 21
73.641597
  0
LINE
  8
CONSTRUCTION
 10
-18.189438
 11
-18.199438
 20
73.641597
 21
73.616597
  0
LINE
  8
CONSTRUCTION
 10
-18.062987
 11
-18.087987
 20
73.711162
 21
73.711162
  0
LINE
  8
CONSTRUCTION
 10
-18.087987
 11
-18.087987
 20
73.711162
 21
73.736162
  0
LINE
  8
CONSTRUCTION
 10
-18.087987
 11
-18.062987
 20
73.736162
 21
73.736162
  0
LINE
  8
CONSTRUCTION
 10
-18.062987
 11
-18.062987
 20
73.736162
 21
73.676162
  0
LINE
  8
CONSTRUCTION
 10
-18.062987
 11
-18.067987
 20
73.676162
 21
73.641162
  0
LINE
  8
CONSTRUCTION
 10
-18.067987
 11
-18.077987
 20
73.641162
 21
73.616162
  0
LINE
  8
CONSTRUCTION
 10
-14.379442
 11
-14.379442
 20
75.899077
 21
75.984858
  0
LINE
  8
CONSTRUCTION
 10
-14.379442
 11
-14.379442
 20
75.984858
 21
76.070639
  0
LINE
  8
CONSTRUCTION
 10
-14.379442
 11
-14.879442
 20
75.984858
 21
75.984858
  0
LINE
  8
CONSTRUCTION
 10
-14.879442
 11
-14.793661
 20
75.984858
 21
75.899077
  0
ARC
  8
CONSTRUCTION
 10
-14.539338
 20
76.32072
 40
0.155906
 50
298.751948
 51
348.48402
  0
ARC
  8
CONSTRUCTION
 10
-14.682279
 20
76.353755
 40
0.302589
 50
347.758312
 51
16.480382
  0
ARC
  8
CONSTRUCTION
 10
-14.528779
 20
76.400706
 40
0.142083
 50
15.885172
 51
55.197039
  0
ARC
  8
CONSTRUCTION
 10
-14.529687
 20
76.401819
 40
0.141694
 50
54.638795
 51
121.268726
  0
ARC
  8
CONSTRUCTION
 10
-14.528058
 20
76.397099
 40
0.146578
 50
120.855291
 51
165.402309
  0
ARC
  8
CONSTRUCTION
 10
-14.40952
 20
76.367374
 40
0.268783
 50
165.6389
 51
194.3611
  0
ARC
  8
CONSTRUCTION
 10
-14.956138
 20
76.201769
 40
0.30285
 50
19.068075
 51
75.63788
  0
LINE
  8
CONSTRUCTION
 10
-14.881016
 11
-14.881015
 20
76.495154
 21
76.189596
  0
CIRCLE
  8
CONSTRUCTION
 10
-14.429632
 20
76.679263
 40
0.05
  0
ARC
  8
CONSTRUCTION
 10
-14.537044
 20
77.027603
 40
0.1637
 50
308.6887
 51
51.3113
  0
ARC
  8
CONSTRUCTION
 10
-14.626386
 20
76.918873
 40
0.304422
 50
50.978113
 51
129.020738
  0
ARC
  8
CONSTRUCTION
 10
-14.715725
 20
77.027606
 40
0.1637
 50
128.688157
 51
231.312908
  0
ARC
  8
CONSTRUCTION
 10
-14.626383
 20
77.136337
 40
0.304422
 50
230.978975
 51
309.021025
  0
LINE
  8
CONSTRUCTION
 10
-14.37944
 11
-14.379442
 20
77.654829
 21
77.321496
  0
ARC
  8
CONSTRUCTION
 10
-14.379678
 20
77.497735
 40
0.176239
 50
211.813563
 51
270.07656
  0
LINE
  8
CONSTRUCTION
 10
-14.52944
 11
-14.646107
 20
77.404829
 21
77.593717
  0
ARC
  8
CONSTRUCTION
 10
-14.751661
 20
77.532233
 40
0.122156
 50
30.220013
 51
149.779436
  0
ARC
  8
CONSTRUCTION
 10
-14.681703
 20
77.499269
 40
0.199311
 50
151.713834
 51
208.283685
  0
ARC
  8
CONSTRUCTION
 10
-14.752134
 20
77.460752
 40
0.119039
 50
208.0207
 51
259.4717
  0
LINE
  8
CONSTRUCTION
 10
-14.879705
 11
-14.879705
 20
77.768597
 21
78.129709
  0
LINE
  8
CONSTRUCTION
 10
-14.879705
 11
-14.851928
 20
78.129709
 21
78.129705
  0
ARC
  8
CONSTRUCTION
 10
-14.396427
 20
78.470648
 40
0.568967
 50
216.8148
 51
271.6842
  0
LINE
  8
CONSTRUCTION
 10
-14.856968
 11
-14.856968
 20
78.271143
 21
78.246143
  0
LINE
  8
CONSTRUCTION
 10
-14.856968
 11
-14.881968
 20
78.246143
 21
78.246143
  0
LINE
  8
CONSTRUCTION
 10
-14.881968
 11
-14.881968
 20
78.246143
 21
78.271143
  0
LINE
  8
CONSTRUCTION
 10
-14.881968
 11
-14.821968
 20
78.271143
 21
78.271143
  0
LINE
  8
CONSTRUCTION
 10
-14.821968
 11
-14.786968
 20
78.271143
 21
78.266143
  0
LINE
  8
CONSTRUCTION
 10
-14.786968
 11
-14.761968
 20
78.266143
 21
78.256143
  0
LINE
  8
CONSTRUCTION
 10
-14.856533
 11
-14.856533
 20
78.392593
 21
78.367593
  0
LINE
  8
CONSTRUCTION
 10
-14.856533
 11
-14.881533
 20
78.367593
 21
78.367593
  0
LINE
  8
CONSTRUCTION
 10
-14.881533
 11
-14.881533
 20
78.367593
 21
78.392593
  0
LINE
  8
CONSTRUCTION
 10
-14.881533
 11
-14.821533
 20
78.392593
 21
78.392593
  0
LINE
  8
CONSTRUCTION
 10
-14.821533
 11
-14.786533
 20
78.392593
 21
78.387593
  0
LINE
  8
CONSTRUCTION
 10
-14.786533
 11
-14.761533
 20
78.387593
 21
78.377593
  0
ARC
  8
CONSTRUCTION
 10
-22.613723
 20
73.659785
 40
0.182363
 50
31.026839
 51
40.045456
  0
ARC
  8
CONSTRUCTION
 10
-22.550785
 20
73.715723
 40
0.09822
 50
38.687092
 51
141.311843
  0
ARC
  8
CONSTRUCTION
 10
-22.485545
 20
73.662119
 40
0.182653
 50
140.979262
 51
219.021887
  0
ARC
  8
CONSTRUCTION
 10
-22.550782
 20
73.608512
 40
0.09822
 50
218.687682
 51
321.31267
  0
ARC
  8
CONSTRUCTION
 10
-22.614847
 20
73.654224
 40
0.176853
 50
322.7266
 51
335.3459
  0
LINE
  8
CONSTRUCTION
 10
-22.420958
 11
-22.276957
 20
73.619222
 21
73.619221
  0
ARC
  8
CONSTRUCTION
 10
-22.365923
 20
73.622479
 40
0.089025
 50
357.902951
 51
30.171303
  0
ARC
  8
CONSTRUCTION
 10
-22.346066
 20
73.634309
 40
0.065913
 50
29.956335
 51
89.906216
  0
ARC
  8
CONSTRUCTION
 10
-22.345825
 20
73.629623
 40
0.070599
 50
90.107586
 51
153.41119
  0
ARC
  8
CONSTRUCTION
 10
-22.301036
 20
73.607221
 40
0.120678
 50
153.418148
 51
206.580991
  0
ARC
  8
CONSTRUCTION
 10
-22.345826
 20
73.584821
 40
0.070599
 50
206.588564
 51
269.892739
  0
ARC
  8
CONSTRUCTION
 10
-22.346243
 20
73.591403
 40
0.077181
 50
270.2113
 51
325.0807
  0
LINE
  8
CONSTRUCTION
 10
-22.117954
 11
-22.117951
 20
73.509568
 21
73.647569
  0
ARC
  8
CONSTRUCTION
 10
-22.168684
 20
73.647836
 40
0.050733
 50
359.698802
 51
90.305782
  0
ARC
  8
CONSTRUCTION
 10
-22.169023
 20
73.611304
 40
0.087264
 50
89.9552
 51
153.2598
  0
LINE
  8
CONSTRUCTION
 10
-22.246954
 11
-22.246954
 20
73.509568
 21
73.698568
  0
LINE
  8
CONSTRUCTION
 10
-22.023014
 11
-22.023014
 20
73.779568
 21
73.509568
  0
LINE
  8
CONSTRUCTION
 10
-22.059014
 11
-21.984014
 20
73.695568
 21
73.695568
  0
LINE
  8
CONSTRUCTION
 10
-21.952138
 11
-21.808138
 20
73.619222
 21
73.619221
  0
ARC
  8
CONSTRUCTION
 10
-21.897103
 20
73.622479
 40
0.089025
 50
357.902951
 51
30.171303
  0
ARC
  8
CONSTRUCTION
 10
-21.877246
 20
73.634309
 40
0.065913
 50
29.956335
 51
89.906216
  0
ARC
  8
CONSTRUCTION
 10
-21.877005
 20
73.629623
 40
0.070599
 50
90.107586
 51
153.41119
  0
ARC
  8
CONSTRUCTION
 10
-21.832216
 20
73.607221
 40
0.120678
 50
153.418148
 51
206.580991
  0
ARC
  8
CONSTRUCTION
 10
-21.877006
 20
73.584821
 40
0.070599
 50
206.588564
 51
269.892739
  0
ARC
  8
CONSTRUCTION
 10
-21.877423
 20
73.591403
 40
0.077181
 50
270.2113
 51
325.0807
  0
ARC
  8
CONSTRUCTION
 10
-21.662067
 20
73.620094
 40
0.078477
 50
89.6195
 51
170.8532
  0
LINE
  8
CONSTRUCTION
 10
-21.739545
 11
-21.739545
 20
73.698568
 21
73.509568
  0
LINE
  8
CONSTRUCTION
 10
-21.778134
 11
-21.700955
 20
73.509568
 21
73.509568
  0
LINE
  8
CONSTRUCTION
 10
-21.584226
 11
-21.584226
 20
73.509568
 21
73.779568
  0
LINE
  8
CONSTRUCTION
 10
-21.584226
 11
-21.606267
 20
73.779568
 21
73.779568
  0
LINE
  8
CONSTRUCTION
 10
-21.631545
 11
-21.584226
 20
73.509568
 21
73.509568
  0
LINE
  8
CONSTRUCTION
 10
-21.584226
 11
-21.536906
 20
73.509568
 21
73.509568
  0
LINE
  8
CONSTRUCTION
 10
-21.438317
 11
-21.438317
 20
73.782568
 21
73.758568
  0
LINE
  8
CONSTRUCTION
 10
-21.438317
 11
-21.438317
 20
73.509568
 21
73.698568
  0
LINE
  8
CONSTRUCTION
 10
-21.476906
 11
-21.399728
 20
73.509568
 21
73.509568
  0
LINE
  8
CONSTRUCTION
 10
-21.210728
 11
-21.210725
 20
73.509568
 21
73.647569
  0
ARC
  8
CONSTRUCTION
 10
-21.261458
 20
73.647836
 40
0.050733
 50
359.698802
 51
90.305782
  0
ARC
  8
CONSTRUCTION
 10
-21.261797
 20
73.611304
 40
0.087264
 50
89.9552
 51
153.2598
  0
LINE
  8
CONSTRUCTION
 10
-21.339728
 11
-21.339728
 20
73.509568
 21
73.698568
  0
LINE
  8
CONSTRUCTION
 10
-21.179912
 11
-21.035912
 20
73.619222
 21
73.619221
  0
ARC
  8
CONSTRUCTION
 10
-21.124877
 20
73.622479
 40
0.089025
 50
357.902951
 51
30.171303
  0
ARC
  8
CONSTRUCTION
 10
-21.10502
 20
73.634309
 40
0.065913
 50
29.956335
 51
89.906216
  0
ARC
  8
CONSTRUCTION
 10
-21.104779
 20
73.629623
 40
0.070599
 50
90.107586
 51
153.41119
  0
ARC
  8
CONSTRUCTION
 10
-21.05999
 20
73.607221
 40
0.120678
 50
153.418148
 51
206.580991
  0
ARC
  8
CONSTRUCTION
 10
-21.10478
 20
73.584821
 40
0.070599
 50
206.588564
 51
269.892739
  0
ARC
  8
CONSTRUCTION
 10
-21.105197
 20
73.591403
 40
0.077181
 50
270.2113
 51
325.0807
  0
ARC
  8
CONSTRUCTION
 10
-14.816467
 20
67.077961
 40
0.182363
 50
121.026839
 51
130.045456
  0
ARC
  8
CONSTRUCTION
 10
-14.872405
 20
67.140899
 40
0.09822
 50
128.687092
 51
231.311843
  0
ARC
  8
CONSTRUCTION
 10
-14.818801
 20
67.206139
 40
0.182653
 50
230.979262
 51
309.021887
  0
ARC
  8
CONSTRUCTION
 10
-14.765194
 20
67.140901
 40
0.09822
 50
308.687682
 51
51.31267
  0
ARC
  8
CONSTRUCTION
 10
-14.810906
 20
67.076837
 40
0.176853
 50
52.7266
 51
65.3459
  0
LINE
  8
CONSTRUCTION
 10
-14.775904
 11
-14.775903
 20
67.270726
 21
67.414726
  0
ARC
  8
CONSTRUCTION
 10
-14.779161
 20
67.325761
 40
0.089025
 50
87.902951
 51
120.171303
  0
ARC
  8
CONSTRUCTION
 10
-14.790991
 20
67.345618
 40
0.065913
 50
119.956335
 51
179.906216
  0
ARC
  8
CONSTRUCTION
 10
-14.786305
 20
67.345858
 40
0.070599
 50
180.107586
 51
243.41119
  0
ARC
  8
CONSTRUCTION
 10
-14.763904
 20
67.390648
 40
0.120678
 50
243.418148
 51
296.580991
  0
ARC
  8
CONSTRUCTION
 10
-14.741503
 20
67.345858
 40
0.070599
 50
296.588564
 51
359.892739
  0
ARC
  8
CONSTRUCTION
 10
-14.748085
 20
67.345441
 40
0.077181
 50
0.2113
 51
55.0807
  0
LINE
  8
CONSTRUCTION
 10
-14.66625
 11
-14.804251
 20
67.57373
 21
67.573732
  0
ARC
  8
CONSTRUCTION
 10
-14.804518
 20
67.523
 40
0.050733
 50
89.698802
 51
180.305782
  0
ARC
  8
CONSTRUCTION
 10
-14.767986
 20
67.522661
 40
0.087264
 50
179.9552
 51
243.2598
  0
LINE
  8
CONSTRUCTION
 10
-14.66625
 11
-14.85525
 20
67.44473
 21
67.44473
  0
LINE
  8
CONSTRUCTION
 10
-14.93625
 11
-14.66625
 20
67.668669
 21
67.668669
  0
LINE
  8
CONSTRUCTION
 10
-14.85225
 11
-14.85225
 20
67.632669
 21
67.707669
  0
LINE
  8
CONSTRUCTION
 10
-14.775904
 11
-14.775903
 20
67.739546
 21
67.883546
  0
ARC
  8
CONSTRUCTION
 10
-14.779161
 20
67.794581
 40
0.089025
 50
87.902951
 51
120.171303
  0
ARC
  8
CONSTRUCTION
 10
-14.790991
 20
67.814438
 40
0.065913
 50
119.956335
 51
179.906216
  0
ARC
  8
CONSTRUCTION
 10
-14.786305
 20
67.814678
 40
0.070599
 50
180.107586
 51
243.41119
  0
ARC
  8
CONSTRUCTION
 10
-14.763904
 20
67.859467
 40
0.120678
 50
243.418148
 51
296.580991
  0
ARC
  8
CONSTRUCTION
 10
-14.741503
 20
67.814677
 40
0.070599
 50
296.588564
 51
359.892739
  0
ARC
  8
CONSTRUCTION
 10
-14.748085
 20
67.814261
 40
0.077181
 50
0.2113
 51
55.0807
  0
ARC
  8
CONSTRUCTION
 10
-14.776776
 20
68.029617
 40
0.078477
 50
179.6195
 51
260.8532
  0
LINE
  8
CONSTRUCTION
 10
-14.85525
 11
-14.66625
 20
67.952139
 21
67.952139
  0
LINE
  8
CONSTRUCTION
 10
-14.66625
 11
-14.66625
 20
67.91355
 21
67.990728
  0
LINE
  8
CONSTRUCTION
 10
-14.66625
 11
-14.93625
 20
68.107458
 21
68.107458
  0
LINE
  8
CONSTRUCTION
 10
-14.93625
 11
-14.93625
 20
68.107458
 21
68.085417
  0
LINE
  8
CONSTRUCTION
 10
-14.66625
 11
-14.66625
 20
68.060138
 21
68.107458
  0
LINE
  8
CONSTRUCTION
 10
-14.66625
 11
-14.66625
 20
68.107458
 21
68.154777
  0
LINE
  8
CONSTRUCTION
 10
-14.93925
 11
-14.91525
 20
68.253367
 21
68.253367
  0
LINE
  8
CONSTRUCTION
 10
-14.66625
 11
-14.85525
 20
68.253367
 21
68.253367
  0
LINE
  8
CONSTRUCTION
 10
-14.66625
 11
-14.66625
 20
68.214777
 21
68.291956
  0
LINE
  8
CONSTRUCTION
 10
-14.66625
 11
-14.804251
 20
68.480956
 21
68.480958
  0
ARC
  8
CONSTRUCTION
 10
-14.804518
 20
68.430226
 40
0.050733
 50
89.698802
 51
180.305782
  0
ARC
  8
CONSTRUCTION
 10
-14.767986
 20
68.429887
 40
0.087264
 50
179.9552
 51
243.2598
  0
LINE
  8
CONSTRUCTION
 10
-14.66625
 11
-14.85525
 20
68.351956
 21
68.351956
  0
LINE
  8
CONSTRUCTION
 10
-14.775904
 11
-14.775903
 20
68.511771
 21
68.655772
  0
ARC
  8
CONSTRUCTION
 10
-14.779161
 20
68.566806
 40
0.089025
 50
87.902951
 51
120.171303
  0
ARC
  8
CONSTRUCTION
 10
-14.790991
 20
68.586664
 40
0.065913
 50
119.956335
 51
179.906216
  0
ARC
  8
CONSTRUCTION
 10
-14.786305
 20
68.586904
 40
0.070599
 50
180.107586
 51
243.41119
  0
ARC
  8
CONSTRUCTION
 10
-14.763904
 20
68.631693
 40
0.120678
 50
243.418148
 51
296.580991
  0
ARC
  8
CONSTRUCTION
 10
-14.741503
 20
68.586903
 40
0.070599
 50
296.588564
 51
359.892739
  0
ARC
  8
CONSTRUCTION
 10
-14.748085
 20
68.586486
 40
0.077181
 50
0.2113
 51
55.0807
  0
TEXT
  8
TEXT
 10
-20.167459
 20
74.497629
 30
0.0
 40
1.0
 50
0.0
  1
A-306
  0
TEXT
  8
TEXT
 10
-20.167459
 20
72.997629
 30
0.0
 40
1.0
 50
0.0
  1

  0
TEXT
  8
TEXT
 10
-20.77793
 20
76.415152
 30
0.0
 40
1.0
 50
0.0
  1
KARRAN
  0
TEXT
  8
TEXT
 10
-20.77793
 20
74.915152
 30
0.0
 40
1.0
 50
0.0
  1

  0
TEXT
  8
TEXT
 10
-14.110715
 20
72.272804
 30
0.0
 40
0.5
 50
0.0
  1
Please check sink
  0
TEXT
  8
TEXT
 10
-14.110715
 20
71.522804
 30
0.0
 40
0.5
 50
0.0
  1
for accuracy
  0
TEXT
  8
TEXT
 10
-14.110715
 20
70.772804
 30
0.0
 40
0.5
 50
0.0
  1

  0
TEXT
  8
TEXT
 10
-14.110715
 20
70.022804
 30
0.0
 40
0.5
 50
0.0
  1

  0
TEXT
  8
TEXT
 10
-14.113237
 20
70.216186
 30
0.0
 40
0.5
 50
0.0
  1
Template line is
  0
TEXT
  8
TEXT
 10
-14.113237
 20
69.466186
 30
0.0
 40
0.5
 50
0.0
  1
inside perimeter
  0
TEXT
  8
TEXT
 10
-14.113237
 20
68.716186
 30
0.0
 40
0.5
 50
0.0
  1
of sink
  0
TEXT
  8
TEXT
 10
-14.113237
 20
67.966186
 30
0.0
 40
0.5
 50
0.0
  1

  0
ENDSEC
  0
EOF
