  0
SECTION
  2
ENTITIES
  0
ARC
  8
BLUE_BLUE
 10
-2.587369
 20
-0.591008
 40
5.386503
 50
171.766839
 51
219.95962
  0
ARC
  8
BLUE_BLUE
 10
-0.702698
 20
0.982662
 40
7.841785
 50
219.928845
 51
243.259806
  0
ARC
  8
BLUE_BLUE
 10
0.669763
 20
3.621837
 40
10.816315
 50
243.057459
 51
258.815633
  0
ARC
  8
BLUE_BLUE
 10
0.573922
 20
1.554622
 40
8.775141
 50
256.811046
 51
284.12527
  0
ARC
  8
BLUE_BLUE
 10
1.120551
 20
1.841954
 40
8.940556
 50
280.275828
 51
313.038494
  0
ARC
  8
BLUE_BLUE
 10
3.693822
 20
-0.685055
 40
5.339629
 50
311.362887
 51
353.266502
  0
ARC
  8
BLUE_BLUE
 10
4.1151
 20
-0.722219
 40
4.916915
 50
353.120991
 51
36.244765
  0
ARC
  8
BLUE_BLUE
 10
2.069215
 20
-1.908746
 40
7.272827
 50
34.253822
 51
62.91664
  0
ARC
  8
BLUE_BLUE
 10
0.461138
 20
-4.467967
 40
10.287006
 50
61.431779
 51
85.40515
  0
ARC
  8
BLUE_BLUE
 10
0.520508
 20
-4.595586
 40
10.40969
 50
85.787154
 51
105.515141
  0
ARC
  8
BLUE_BLUE
 10
-0.011541
 20
-3.372614
 40
9.090857
 50
104.345778
 51
131.548393
  0
ARC
  8
BLUE_BLUE
 10
-1.409579
 20
-1.611169
 40
6.846434
 50
132.569401
 51
147.400915
  0
ARC
  8
BLUE_BLUE
 10
-2.904607
 20
-0.684638
 40
5.087816
 50
147.120608
 51
170.211521
  0
LINE
  8
APS_GEOMETRY
 10
-7.972703
 11
-5.943766
 20
-0.703208
 21
-0.703208
  0
LINE
  8
APS_GEOMETRY
 10
-4.319856
 11
9.032016
 20
-0.703208
 21
-0.703208
  0
LINE
  8
APS_GEOMETRY
 10
0.529072
 11
0.529072
 20
5.814104
 21
4.421154
  0
LINE
  8
APS_GEOMETRY
 10
0.529072
 11
0.529072
 20
1.645497
 21
-2.507354
  0
LINE
  8
APS_GEOMETRY
 10
0.529072
 11
0.529072
 20
-5.056892
 21
-7.220405
  0
ARC
  8
CONSTRUCTION
 10
0.246928
 20
-7.051461
 40
0.182363
 50
121.026839
 51
130.045456
  0
ARC
  8
CONSTRUCTION
 10
0.19099
 20
-6.988523
 40
0.09822
 50
128.687092
 51
231.311843
  0
ARC
  8
CONSTRUCTION
 10
0.244593
 20
-6.923283
 40
0.182653
 50
230.979262
 51
309.021887
  0
ARC
  8
CONSTRUCTION
 10
0.2982
 20
-6.98852
 40
0.09822
 50
308.687682
 51
51.31267
  0
ARC
  8
CONSTRUCTION
 10
0.252489
 20
-7.052585
 40
0.176853
 50
52.7266
 51
65.3459
  0
LINE
  8
CONSTRUCTION
 10
0.287491
 11
0.287491
 20
-6.858696
 21
-6.714696
  0
ARC
  8
CONSTRUCTION
 10
0.284233
 20
-6.803661
 40
0.089025
 50
87.902951
 51
120.171303
  0
ARC
  8
CONSTRUCTION
 10
0.272404
 20
-6.783804
 40
0.065913
 50
119.956335
 51
179.906216
  0
ARC
  8
CONSTRUCTION
 10
0.27709
 20
-6.783563
 40
0.070599
 50
180.107586
 51
243.41119
  0
ARC
  8
CONSTRUCTION
 10
0.299491
 20
-6.738774
 40
0.120678
 50
243.418148
 51
296.580991
  0
ARC
  8
CONSTRUCTION
 10
0.321891
 20
-6.783564
 40
0.070599
 50
296.588564
 51
359.892739
  0
ARC
  8
CONSTRUCTION
 10
0.31531
 20
-6.783981
 40
0.077181
 50
0.2113
 51
55.0807
  0
LINE
  8
CONSTRUCTION
 10
0.397144
 11
0.259143
 20
-6.555692
 21
-6.555689
  0
ARC
  8
CONSTRUCTION
 10
0.258877
 20
-6.606422
 40
0.050733
 50
89.698802
 51
180.305782
  0
ARC
  8
CONSTRUCTION
 10
0.295408
 20
-6.606761
 40
0.087264
 50
179.9552
 51
243.2598
  0
LINE
  8
CONSTRUCTION
 10
0.397144
 11
0.208144
 20
-6.684692
 21
-6.684692
  0
LINE
  8
CONSTRUCTION
 10
0.127144
 11
0.397144
 20
-6.460753
 21
-6.460753
  0
LINE
  8
CONSTRUCTION
 10
0.211144
 11
0.211144
 20
-6.496753
 21
-6.421753
  0
LINE
  8
CONSTRUCTION
 10
0.287491
 11
0.287491
 20
-6.389876
 21
-6.245876
  0
ARC
  8
CONSTRUCTION
 10
0.284233
 20
-6.334841
 40
0.089025
 50
87.902951
 51
120.171303
  0
ARC
  8
CONSTRUCTION
 10
0.272404
 20
-6.314984
 40
0.065913
 50
119.956335
 51
179.906216
  0
ARC
  8
CONSTRUCTION
 10
0.27709
 20
-6.314744
 40
0.070599
 50
180.107586
 51
243.41119
  0
ARC
  8
CONSTRUCTION
 10
0.299491
 20
-6.269954
 40
0.120678
 50
243.418148
 51
296.580991
  0
ARC
  8
CONSTRUCTION
 10
0.321891
 20
-6.314744
 40
0.070599
 50
296.588564
 51
359.892739
  0
ARC
  8
CONSTRUCTION
 10
0.31531
 20
-6.315161
 40
0.077181
 50
0.2113
 51
55.0807
  0
ARC
  8
CONSTRUCTION
 10
0.286618
 20
-6.099805
 40
0.078477
 50
179.6195
 51
260.8532
  0
LINE
  8
CONSTRUCTION
 10
0.208144
 11
0.397144
 20
-6.177283
 21
-6.177283
  0
LINE
  8
CONSTRUCTION
 10
0.397144
 11
0.397144
 20
-6.215872
 21
-6.138693
  0
LINE
  8
CONSTRUCTION
 10
0.397144
 11
0.127144
 20
-6.021964
 21
-6.021964
  0
LINE
  8
CONSTRUCTION
 10
0.127144
 11
0.127144
 20
-6.021964
 21
-6.044005
  0
LINE
  8
CONSTRUCTION
 10
0.397144
 11
0.397144
 20
-6.069284
 21
-6.021964
  0
LINE
  8
CONSTRUCTION
 10
0.397144
 11
0.397144
 20
-6.021964
 21
-5.974644
  0
LINE
  8
CONSTRUCTION
 10
0.124144
 11
0.148144
 20
-5.876055
 21
-5.876055
  0
LINE
  8
CONSTRUCTION
 10
0.397144
 11
0.208144
 20
-5.876055
 21
-5.876055
  0
LINE
  8
CONSTRUCTION
 10
0.397144
 11
0.397144
 20
-5.914644
 21
-5.837466
  0
LINE
  8
CONSTRUCTION
 10
0.397144
 11
0.259143
 20
-5.648466
 21
-5.648464
  0
ARC
  8
CONSTRUCTION
 10
0.258877
 20
-5.699196
 40
0.050733
 50
89.698802
 51
180.305782
  0
ARC
  8
CONSTRUCTION
 10
0.295408
 20
-5.699535
 40
0.087264
 50
179.9552
 51
243.2598
  0
LINE
  8
CONSTRUCTION
 10
0.397144
 11
0.208144
 20
-5.777466
 21
-5.777466
  0
LINE
  8
CONSTRUCTION
 10
0.287491
 11
0.287491
 20
-5.61765
 21
-5.47365
  0
ARC
  8
CONSTRUCTION
 10
0.284233
 20
-5.562615
 40
0.089025
 50
87.902951
 51
120.171303
  0
ARC
  8
CONSTRUCTION
 10
0.272404
 20
-5.542758
 40
0.065913
 50
119.956335
 51
179.906216
  0
ARC
  8
CONSTRUCTION
 10
0.27709
 20
-5.542518
 40
0.070599
 50
180.107586
 51
243.41119
  0
ARC
  8
CONSTRUCTION
 10
0.299491
 20
-5.497728
 40
0.120678
 50
243.418148
 51
296.580991
  0
ARC
  8
CONSTRUCTION
 10
0.321891
 20
-5.542518
 40
0.070599
 50
296.588564
 51
359.892739
  0
ARC
  8
CONSTRUCTION
 10
0.31531
 20
-5.542935
 40
0.077181
 50
0.2113
 51
55.0807
  0
LINE
  8
CONSTRUCTION
 10
0.851148
 11
0.851148
 20
2.023911
 21
2.109692
  0
LINE
  8
CONSTRUCTION
 10
0.851148
 11
0.851148
 20
2.109692
 21
2.195473
  0
LINE
  8
CONSTRUCTION
 10
0.851148
 11
0.351148
 20
2.109692
 21
2.109692
  0
LINE
  8
CONSTRUCTION
 10
0.351148
 11
0.43693
 20
2.109692
 21
2.023911
  0
ARC
  8
CONSTRUCTION
 10
0.691253
 20
2.445554
 40
0.155906
 50
298.751948
 51
348.48402
  0
ARC
  8
CONSTRUCTION
 10
0.548311
 20
2.478589
 40
0.302589
 50
347.758312
 51
16.480382
  0
ARC
  8
CONSTRUCTION
 10
0.701811
 20
2.52554
 40
0.142083
 50
15.885172
 51
55.197039
  0
ARC
  8
CONSTRUCTION
 10
0.700903
 20
2.526653
 40
0.141694
 50
54.638795
 51
121.268726
  0
ARC
  8
CONSTRUCTION
 10
0.702532
 20
2.521933
 40
0.146578
 50
120.855291
 51
165.402309
  0
ARC
  8
CONSTRUCTION
 10
0.82107
 20
2.492208
 40
0.268783
 50
165.6389
 51
194.3611
  0
ARC
  8
CONSTRUCTION
 10
0.274453
 20
2.326603
 40
0.30285
 50
19.068075
 51
75.63788
  0
LINE
  8
CONSTRUCTION
 10
0.349575
 11
0.349576
 20
2.619988
 21
2.31443
  0
CIRCLE
  8
CONSTRUCTION
 10
0.800959
 20
2.804097
 40
0.05
  0
ARC
  8
CONSTRUCTION
 10
0.693547
 20
3.152438
 40
0.1637
 50
308.6887
 51
51.3113
  0
ARC
  8
CONSTRUCTION
 10
0.604204
 20
3.043707
 40
0.304422
 50
50.978113
 51
129.020738
  0
ARC
  8
CONSTRUCTION
 10
0.514866
 20
3.15244
 40
0.1637
 50
128.688157
 51
231.312908
  0
ARC
  8
CONSTRUCTION
 10
0.604208
 20
3.261171
 40
0.304422
 50
230.978975
 51
309.021025
  0
ARC
  8
CONSTRUCTION
 10
0.691253
 20
3.596411
 40
0.155906
 50
298.751948
 51
348.48402
  0
ARC
  8
CONSTRUCTION
 10
0.548311
 20
3.629446
 40
0.302589
 50
347.758312
 51
16.480382
  0
ARC
  8
CONSTRUCTION
 10
0.701811
 20
3.676397
 40
0.142083
 50
15.885172
 51
55.197039
  0
ARC
  8
CONSTRUCTION
 10
0.700903
 20
3.67751
 40
0.141694
 50
54.638795
 51
121.268726
  0
ARC
  8
CONSTRUCTION
 10
0.702532
 20
3.67279
 40
0.146578
 50
120.855291
 51
165.402309
  0
ARC
  8
CONSTRUCTION
 10
0.82107
 20
3.643065
 40
0.268783
 50
165.6389
 51
194.3611
  0
ARC
  8
CONSTRUCTION
 10
0.274453
 20
3.47746
 40
0.30285
 50
19.068075
 51
75.63788
  0
LINE
  8
CONSTRUCTION
 10
0.349575
 11
0.349576
 20
3.770845
 21
3.465287
  0
LINE
  8
CONSTRUCTION
 10
0.373623
 11
0.373623
 20
3.961009
 21
3.936009
  0
LINE
  8
CONSTRUCTION
 10
0.373623
 11
0.348623
 20
3.936009
 21
3.936009
  0
LINE
  8
CONSTRUCTION
 10
0.348623
 11
0.348623
 20
3.936009
 21
3.961009
  0
LINE
  8
CONSTRUCTION
 10
0.348623
 11
0.408623
 20
3.961009
 21
3.961009
  0
LINE
  8
CONSTRUCTION
 10
0.408623
 11
0.443623
 20
3.961009
 21
3.956009
  0
LINE
  8
CONSTRUCTION
 10
0.443623
 11
0.468623
 20
3.956009
 21
3.946009
  0
LINE
  8
CONSTRUCTION
 10
0.374057
 11
0.374057
 20
4.08246
 21
4.05746
  0
LINE
  8
CONSTRUCTION
 10
0.374057
 11
0.349057
 20
4.05746
 21
4.05746
  0
LINE
  8
CONSTRUCTION
 10
0.349057
 11
0.349057
 20
4.05746
 21
4.08246
  0
LINE
  8
CONSTRUCTION
 10
0.349057
 11
0.409057
 20
4.08246
 21
4.08246
  0
LINE
  8
CONSTRUCTION
 10
0.409057
 11
0.444057
 20
4.08246
 21
4.07746
  0
LINE
  8
CONSTRUCTION
 10
0.444057
 11
0.469057
 20
4.07746
 21
4.06746
  0
LINE
  8
APS_GEOMETRY
 10
0.529072
 11
0.529072
 20
-5.056892
 21
-2.507354
  0
ARC
  8
CONSTRUCTION
 10
-7.735868
 20
-0.436403
 40
0.182363
 50
31.026839
 51
40.045456
  0
ARC
  8
CONSTRUCTION
 10
-7.67293
 20
-0.380465
 40
0.09822
 50
38.687092
 51
141.311843
  0
ARC
  8
CONSTRUCTION
 10
-7.60769
 20
-0.434069
 40
0.182653
 50
140.979262
 51
219.021887
  0
ARC
  8
CONSTRUCTION
 10
-7.672927
 20
-0.487676
 40
0.09822
 50
218.687682
 51
321.31267
  0
ARC
  8
CONSTRUCTION
 10
-7.736992
 20
-0.441964
 40
0.176853
 50
322.7266
 51
335.3459
  0
LINE
  8
CONSTRUCTION
 10
-7.543103
 11
-7.399103
 20
-0.476966
 21
-0.476966
  0
ARC
  8
CONSTRUCTION
 10
-7.488068
 20
-0.473709
 40
0.089025
 50
357.902951
 51
30.171303
  0
ARC
  8
CONSTRUCTION
 10
-7.468211
 20
-0.461879
 40
0.065913
 50
29.956335
 51
89.906216
  0
ARC
  8
CONSTRUCTION
 10
-7.46797
 20
-0.466565
 40
0.070599
 50
90.107586
 51
153.41119
  0
ARC
  8
CONSTRUCTION
 10
-7.423181
 20
-0.488966
 40
0.120678
 50
153.418148
 51
206.580991
  0
ARC
  8
CONSTRUCTION
 10
-7.467971
 20
-0.511367
 40
0.070599
 50
206.588564
 51
269.892739
  0
ARC
  8
CONSTRUCTION
 10
-7.468388
 20
-0.504785
 40
0.077181
 50
270.2113
 51
325.0807
  0
LINE
  8
CONSTRUCTION
 10
-7.240099
 11
-7.240096
 20
-0.58662
 21
-0.448619
  0
ARC
  8
CONSTRUCTION
 10
-7.290829
 20
-0.448352
 40
0.050733
 50
359.698802
 51
90.305782
  0
ARC
  8
CONSTRUCTION
 10
-7.291168
 20
-0.484884
 40
0.087264
 50
89.9552
 51
153.2598
  0
LINE
  8
CONSTRUCTION
 10
-7.369099
 11
-7.369099
 20
-0.58662
 21
-0.39762
  0
LINE
  8
CONSTRUCTION
 10
-7.14516
 11
-7.14516
 20
-0.31662
 21
-0.58662
  0
LINE
  8
CONSTRUCTION
 10
-7.18116
 11
-7.10616
 20
-0.40062
 21
-0.40062
  0
LINE
  8
CONSTRUCTION
 10
-7.074283
 11
-6.930283
 20
-0.476966
 21
-0.476966
  0
ARC
  8
CONSTRUCTION
 10
-7.019248
 20
-0.473709
 40
0.089025
 50
357.902951
 51
30.171303
  0
ARC
  8
CONSTRUCTION
 10
-6.999391
 20
-0.461879
 40
0.065913
 50
29.956335
 51
89.906216
  0
ARC
  8
CONSTRUCTION
 10
-6.999151
 20
-0.466565
 40
0.070599
 50
90.107586
 51
153.41119
  0
ARC
  8
CONSTRUCTION
 10
-6.954361
 20
-0.488966
 40
0.120678
 50
153.418148
 51
206.580991
  0
ARC
  8
CONSTRUCTION
 10
-6.999151
 20
-0.511367
 40
0.070599
 50
206.588564
 51
269.892739
  0
ARC
  8
CONSTRUCTION
 10
-6.999568
 20
-0.504785
 40
0.077181
 50
270.2113
 51
325.0807
  0
ARC
  8
CONSTRUCTION
 10
-6.784212
 20
-0.476094
 40
0.078477
 50
89.6195
 51
170.8532
  0
LINE
  8
CONSTRUCTION
 10
-6.86169
 11
-6.86169
 20
-0.39762
 21
-0.58662
  0
LINE
  8
CONSTRUCTION
 10
-6.900279
 11
-6.8231
 20
-0.58662
 21
-0.58662
  0
LINE
  8
CONSTRUCTION
 10
-6.706371
 11
-6.706371
 20
-0.58662
 21
-0.31662
  0
LINE
  8
CONSTRUCTION
 10
-6.706371
 11
-6.728412
 20
-0.31662
 21
-0.31662
  0
LINE
  8
CONSTRUCTION
 10
-6.753691
 11
-6.706371
 20
-0.58662
 21
-0.58662
  0
LINE
  8
CONSTRUCTION
 10
-6.706371
 11
-6.659051
 20
-0.58662
 21
-0.58662
  0
LINE
  8
CONSTRUCTION
 10
-6.560462
 11
-6.560462
 20
-0.31362
 21
-0.33762
  0
LINE
  8
CONSTRUCTION
 10
-6.560462
 11
-6.560462
 20
-0.58662
 21
-0.39762
  0
LINE
  8
CONSTRUCTION
 10
-6.599051
 11
-6.521873
 20
-0.58662
 21
-0.58662
  0
LINE
  8
CONSTRUCTION
 10
-6.332873
 11
-6.332871
 20
-0.58662
 21
-0.448619
  0
ARC
  8
CONSTRUCTION
 10
-6.383603
 20
-0.448352
 40
0.050733
 50
359.698802
 51
90.305782
  0
ARC
  8
CONSTRUCTION
 10
-6.383942
 20
-0.484884
 40
0.087264
 50
89.9552
 51
153.2598
  0
LINE
  8
CONSTRUCTION
 10
-6.461873
 11
-6.461873
 20
-0.58662
 21
-0.39762
  0
LINE
  8
CONSTRUCTION
 10
-6.302057
 11
-6.158057
 20
-0.476966
 21
-0.476966
  0
ARC
  8
CONSTRUCTION
 10
-6.247022
 20
-0.473709
 40
0.089025
 50
357.902951
 51
30.171303
  0
ARC
  8
CONSTRUCTION
 10
-6.227165
 20
-0.461879
 40
0.065913
 50
29.956335
 51
89.906216
  0
ARC
  8
CONSTRUCTION
 10
-6.226925
 20
-0.466565
 40
0.070599
 50
90.107586
 51
153.41119
  0
ARC
  8
CONSTRUCTION
 10
-6.182135
 20
-0.488966
 40
0.120678
 50
153.418148
 51
206.580991
  0
ARC
  8
CONSTRUCTION
 10
-6.226925
 20
-0.511367
 40
0.070599
 50
206.588564
 51
269.892739
  0
ARC
  8
CONSTRUCTION
 10
-6.227342
 20
-0.504785
 40
0.077181
 50
270.2113
 51
325.0807
  0
LINE
  8
CONSTRUCTION
 10
-5.555168
 11
-5.469386
 20
-0.969466
 21
-0.969466
  0
LINE
  8
CONSTRUCTION
 10
-5.469386
 11
-5.383605
 20
-0.969466
 21
-0.969466
  0
LINE
  8
CONSTRUCTION
 10
-5.469386
 11
-5.469386
 20
-0.969466
 21
-0.469466
  0
LINE
  8
CONSTRUCTION
 10
-5.469386
 11
-5.555168
 20
-0.469466
 21
-0.555248
  0
LINE
  8
CONSTRUCTION
 10
-5.269837
 11
-4.908726
 20
-0.469204
 21
-0.469204
  0
LINE
  8
CONSTRUCTION
 10
-4.908726
 11
-4.908729
 20
-0.469204
 21
-0.49698
  0
ARC
  8
CONSTRUCTION
 10
-4.567787
 20
-0.952482
 40
0.568967
 50
126.8148
 51
181.6842
  0
LINE
  8
CONSTRUCTION
 10
-4.767292
 11
-4.792292
 20
-0.491941
 21
-0.491941
  0
LINE
  8
CONSTRUCTION
 10
-4.792292
 11
-4.792292
 20
-0.491941
 21
-0.466941
  0
LINE
  8
CONSTRUCTION
 10
-4.792292
 11
-4.767292
 20
-0.466941
 21
-0.466941
  0
LINE
  8
CONSTRUCTION
 10
-4.767292
 11
-4.767292
 20
-0.466941
 21
-0.526941
  0
LINE
  8
CONSTRUCTION
 10
-4.767292
 11
-4.772292
 20
-0.526941
 21
-0.561941
  0
LINE
  8
CONSTRUCTION
 10
-4.772292
 11
-4.782292
 20
-0.561941
 21
-0.586941
  0
LINE
  8
CONSTRUCTION
 10
-4.645841
 11
-4.670841
 20
-0.492375
 21
-0.492375
  0
LINE
  8
CONSTRUCTION
 10
-4.670841
 11
-4.670841
 20
-0.492375
 21
-0.467375
  0
LINE
  8
CONSTRUCTION
 10
-4.670841
 11
-4.645841
 20
-0.467375
 21
-0.467375
  0
LINE
  8
CONSTRUCTION
 10
-4.645841
 11
-4.645841
 20
-0.467375
 21
-0.527375
  0
LINE
  8
CONSTRUCTION
 10
-4.645841
 11
-4.650841
 20
-0.527375
 21
-0.562375
  0
LINE
  8
CONSTRUCTION
 10
-4.650841
 11
-4.660841
 20
-0.562375
 21
-0.587375
  0
TEXT
  8
TEXT
 10
-5.559287
 20
2.251958
 30
0.0
 40
1.0
 50
0.0
  1
KARRAN
  0
TEXT
  8
TEXT
 10
-5.559287
 20
0.751958
 30
0.0
 40
1.0
 50
0.0
  1

  0
TEXT
  8
TEXT
 10
-5.061534
 20
0.569924
 30
0.0
 40
1.0
 50
0.0
  1
Q-306
  0
TEXT
  8
TEXT
 10
-5.061534
 20
-0.930076
 30
0.0
 40
1.0
 50
0.0
  1

  0
TEXT
  8
TEXT
 10
1.929235
 20
-1.713689
 30
0.0
 40
0.5
 50
0.0
  1
Please check sink
  0
TEXT
  8
TEXT
 10
1.929235
 20
-2.463689
 30
0.0
 40
0.5
 50
0.0
  1
for accuracy
  0
TEXT
  8
TEXT
 10
1.929235
 20
-3.213689
 30
0.0
 40
0.5
 50
0.0
  1

  0
TEXT
  8
TEXT
 10
1.927155
 20
-4.0807
 30
0.0
 40
0.5
 50
0.0
  1
Template line is
  0
TEXT
  8
TEXT
 10
1.927155
 20
-4.8307
 30
0.0
 40
0.5
 50
0.0
  1
inside perimeter
  0
TEXT
  8
TEXT
 10
1.927155
 20
-5.5807
 30
0.0
 40
0.5
 50
0.0
  1
of sink
  0
TEXT
  8
TEXT
 10
1.927155
 20
-6.3307
 30
0.0
 40
0.5
 50
0.0
  1

  0
ENDSEC
  0
EOF
