  0
SECTION
  2
ENTITIES
  0
ARC
  8
APS_GEOMETRY
 10
5.531297
 20
8.539837
 40
0.583733
 50
12.148823
 51
63.601209
  0
LINE
  8
APS_GEOMETRY
 10
6.101957
 11
6.146391
 20
8.662684
 21
8.396024
  0
ARC
  8
APS_GEOMETRY
 10
6.538357
 20
8.487262
 40
0.402444
 50
193.1034
 51
271.1466
  0
ARC
  8
APS_GEOMETRY
 10
4.565468
 20
10.462684
 40
2.435378
 50
320.9784
 51
39.0216
  0
ARC
  8
APS_GEOMETRY
 10
5.435313
 20
11.177424
 40
1.3096
 50
38.688157
 51
141.312908
  0
ARC
  8
APS_GEOMETRY
 10
6.305136
 20
10.462656
 40
2.435378
 50
140.978113
 51
219.020738
  0
ARC
  8
APS_GEOMETRY
 10
5.43529
 20
9.747916
 40
1.3096
 50
218.686549
 51
321.313451
  0
ARC
  8
APS_GEOMETRY
 10
8.593592
 20
9.738925
 40
1.247245
 50
208.751948
 51
258.48402
  0
ARC
  8
APS_GEOMETRY
 10
8.857868
 20
10.882457
 40
2.420711
 50
257.758312
 51
286.480382
  0
ARC
  8
APS_GEOMETRY
 10
9.233475
 20
9.654456
 40
1.136667
 50
285.885172
 51
325.197039
  0
ARC
  8
APS_GEOMETRY
 10
9.242377
 20
9.661718
 40
1.133556
 50
324.638795
 51
31.268726
  0
ARC
  8
APS_GEOMETRY
 10
9.20462
 20
9.648689
 40
1.172622
 50
30.855291
 51
75.402309
  0
ARC
  8
APS_GEOMETRY
 10
8.966821
 20
8.700383
 40
2.150267
 50
75.6389
 51
104.3611
  0
ARC
  8
APS_GEOMETRY
 10
7.641977
 20
13.073322
 40
2.4228
 50
289.068075
 51
345.63788
  0
LINE
  8
APS_GEOMETRY
 10
9.989059
 11
7.544598
 20
12.472347
 21
12.472339
  0
LINE
  8
APS_GEOMETRY
 10
13.735422
 11
11.068756
 20
8.45974
 21
8.459759
  0
ARC
  8
APS_GEOMETRY
 10
12.478666
 20
8.461643
 40
1.409911
 50
121.813563
 51
180.07656
  0
LINE
  8
APS_GEOMETRY
 10
11.735421
 11
13.246522
 20
9.65974
 21
10.593075
  0
ARC
  8
APS_GEOMETRY
 10
12.754654
 20
11.437511
 40
0.977244
 50
300.220013
 51
59.779436
  0
ARC
  8
APS_GEOMETRY
 10
12.490941
 20
10.877848
 40
1.594489
 50
61.713834
 51
118.283685
  0
ARC
  8
APS_GEOMETRY
 10
12.182799
 20
11.441296
 40
0.952311
 50
118.0207
 51
169.4717
  0
ARC
  8
APS_GEOMETRY
 10
16.115323
 20
9.720571
 40
1.3096
 50
218.6887
 51
321.3113
  0
ARC
  8
APS_GEOMETRY
 10
15.245478
 20
10.43531
 40
2.435378
 50
320.978113
 51
39.020738
  0
ARC
  8
APS_GEOMETRY
 10
16.115346
 20
11.150022
 40
1.3096
 50
38.688157
 51
141.312908
  0
ARC
  8
APS_GEOMETRY
 10
16.985192
 20
10.435282
 40
2.435378
 50
140.978975
 51
219.021025
  0
LINE
  8
APS_GEOMETRY
 10
21.71075
 11
21.71075
 20
1.93745
 21
13.7652
  0
ARC
  8
APS_GEOMETRY
 10
19.71075
 20
13.7652
 40
2.0
 50
0.0
 51
90.0
  0
LINE
  8
APS_GEOMETRY
 10
19.71075
 11
2.0
 20
15.7652
 21
15.7652
  0
ARC
  8
APS_GEOMETRY
 10
2.0
 20
13.7652
 40
2.0
 50
90.0
 51
180.0
  0
LINE
  8
APS_GEOMETRY
 10
0.0
 11
0.0
 20
13.7652
 21
1.93745
  0
ARC
  8
APS_GEOMETRY
 10
2.0
 20
1.93745
 40
2.0
 50
180.0
 51
270.0
  0
LINE
  8
APS_GEOMETRY
 10
2.0
 11
19.71075
 20
-0.06255
 21
-0.06255
  0
ARC
  8
APS_GEOMETRY
 10
19.71075
 20
1.93745
 40
2.0
 50
270.0
 51
0.0
  0
ENDSEC
  0
EOF
