  0
SECTION
  2
ENTITIES
  0
ARC
  8
APS_GEOMETRY
 10
9.785204
 20
11.350727
 40
0.583733
 50
12.148823
 51
63.601209
  0
LINE
  8
APS_GEOMETRY
 10
10.355865
 11
10.400299
 20
11.473575
 21
11.206914
  0
ARC
  8
APS_GEOMETRY
 10
10.792265
 20
11.298152
 40
0.402444
 50
193.1034
 51
271.1466
  0
ARC
  8
APS_GEOMETRY
 10
8.819376
 20
13.273575
 40
2.435378
 50
320.9784
 51
39.0216
  0
ARC
  8
APS_GEOMETRY
 10
9.689221
 20
13.988314
 40
1.3096
 50
38.688157
 51
141.312908
  0
ARC
  8
APS_GEOMETRY
 10
10.559043
 20
13.273546
 40
2.435378
 50
140.978113
 51
219.020738
  0
ARC
  8
APS_GEOMETRY
 10
9.689198
 20
12.558806
 40
1.3096
 50
218.686549
 51
321.313451
  0
ARC
  8
APS_GEOMETRY
 10
12.847499
 20
12.549815
 40
1.247245
 50
208.751948
 51
258.48402
  0
ARC
  8
APS_GEOMETRY
 10
13.111776
 20
13.693347
 40
2.420711
 50
257.758312
 51
286.480382
  0
ARC
  8
APS_GEOMETRY
 10
13.487382
 20
12.465346
 40
1.136667
 50
285.885172
 51
325.197039
  0
ARC
  8
APS_GEOMETRY
 10
13.496285
 20
12.472609
 40
1.133556
 50
324.638795
 51
31.268726
  0
ARC
  8
APS_GEOMETRY
 10
13.458527
 20
12.459579
 40
1.172622
 50
30.855291
 51
75.402309
  0
ARC
  8
APS_GEOMETRY
 10
13.220728
 20
11.511274
 40
2.150267
 50
75.6389
 51
104.3611
  0
ARC
  8
APS_GEOMETRY
 10
11.895885
 20
15.884212
 40
2.4228
 50
289.068075
 51
345.63788
  0
LINE
  8
APS_GEOMETRY
 10
14.242966
 11
11.798506
 20
15.283238
 21
15.283229
  0
LINE
  8
APS_GEOMETRY
 10
18.775635
 11
15.442301
 20
12.605354
 21
12.605354
  0
LINE
  8
APS_GEOMETRY
 10
15.442301
 11
15.442301
 20
12.605354
 21
12.827576
  0
LINE
  8
APS_GEOMETRY
 10
15.442301
 11
17.664523
 20
12.827576
 21
15.272021
  0
LINE
  8
APS_GEOMETRY
 10
17.664523
 11
17.886746
 20
15.272021
 21
15.272021
  0
LINE
  8
APS_GEOMETRY
 10
17.886746
 11
17.886746
 20
15.272021
 21
11.272021
  0
ARC
  8
APS_GEOMETRY
 10
21.035897
 20
12.531461
 40
1.3096
 50
218.6887
 51
321.3113
  0
ARC
  8
APS_GEOMETRY
 10
20.166052
 20
13.246201
 40
2.435378
 50
320.978113
 51
39.020738
  0
ARC
  8
APS_GEOMETRY
 10
21.03592
 20
13.960912
 40
1.3096
 50
38.688157
 51
141.312908
  0
ARC
  8
APS_GEOMETRY
 10
21.905766
 20
13.246172
 40
2.435378
 50
140.978975
 51
219.021025
  0
LINE
  8
APS_GEOMETRY
 10
1.642669
 11
1.642669
 20
6.876477
 21
19.306027
  0
ARC
  8
APS_GEOMETRY
 10
3.642669
 20
19.306027
 40
2.0
 50
90.0
 51
180.0
  0
LINE
  8
APS_GEOMETRY
 10
3.642669
 11
28.048919
 20
21.306027
 21
21.306027
  0
ARC
  8
APS_GEOMETRY
 10
28.048919
 20
19.306027
 40
2.0
 50
0.0
 51
90.0
  0
LINE
  8
APS_GEOMETRY
 10
30.048919
 11
30.048919
 20
19.306027
 21
6.876477
  0
ARC
  8
APS_GEOMETRY
 10
28.048919
 20
6.876477
 40
2.0
 50
270.0
 51
0.0
  0
LINE
  8
APS_GEOMETRY
 10
28.048919
 11
3.642669
 20
4.876477
 21
4.876477
  0
ARC
  8
APS_GEOMETRY
 10
3.642669
 20
6.876477
 40
2.0
 50
180.0
 51
270.0
  0
ENDSEC
  0
EOF
