  0
SECTION
  2
ENTITIES
  0
LINE
  8
CONSTRUCTION
 10
0.75
 11
33.25
 20
0.0
 21
0.0
  0
ARC
  8
CONSTRUCTION
 10
33.25
 20
0.75
 40
0.75
 50
270.0
 51
0.0
  0
LINE
  8
CONSTRUCTION
 10
34.0
 11
34.0
 20
0.75
 21
20.5
  0
ARC
  8
CONSTRUCTION
 10
33.25
 20
20.5
 40
0.75
 50
0.0
 51
90.0
  0
LINE
  8
CONSTRUCTION
 10
33.25
 11
0.75
 20
21.25
 21
21.25
  0
ARC
  8
CONSTRUCTION
 10
0.75
 20
20.5
 40
0.75
 50
90.0
 51
180.0
  0
LINE
  8
CONSTRUCTION
 10
0.0
 11
0.0
 20
20.5
 21
0.75
  0
ARC
  8
CONSTRUCTION
 10
0.75
 20
0.75
 40
0.75
 50
180.0
 51
270.0
  0
LINE
  8
APS_GEOMETRY
 10
1.59375
 11
1.59375
 20
0.0
 21
19.0
  0
ARC
  8
APS_GEOMETRY
 10
2.09375
 20
19.0
 40
0.5
 50
90.0
 51
180.0
  0
LINE
  8
APS_GEOMETRY
 10
2.09375
 11
31.90625
 20
19.5
 21
19.5
  0
ARC
  8
APS_GEOMETRY
 10
31.90625
 20
19.0
 40
0.5
 50
0.0
 51
90.0
  0
LINE
  8
APS_GEOMETRY
 10
32.40625
 11
32.40625
 20
19.0
 21
0.0
  0
ARC
  8
CONSTRUCTION
 10
1.836507
 20
9.763864
 40
0.182363
 50
31.026839
 51
40.045456
  0
ARC
  8
CONSTRUCTION
 10
1.899445
 20
9.819802
 40
0.09822
 50
38.687092
 51
141.311843
  0
ARC
  8
CONSTRUCTION
 10
1.964685
 20
9.766199
 40
0.182653
 50
140.979262
 51
219.021887
  0
ARC
  8
CONSTRUCTION
 10
1.899448
 20
9.712592
 40
0.09822
 50
218.687682
 51
321.31267
  0
ARC
  8
CONSTRUCTION
 10
1.835383
 20
9.758303
 40
0.176853
 50
322.7266
 51
335.3459
  0
LINE
  8
CONSTRUCTION
 10
2.029272
 11
2.173272
 20
9.723301
 21
9.723301
  0
ARC
  8
CONSTRUCTION
 10
2.084307
 20
9.726558
 40
0.089025
 50
357.902951
 51
30.171303
  0
ARC
  8
CONSTRUCTION
 10
2.104164
 20
9.738388
 40
0.065913
 50
29.956335
 51
89.906216
  0
ARC
  8
CONSTRUCTION
 10
2.104404
 20
9.733702
 40
0.070599
 50
90.107586
 51
153.41119
  0
ARC
  8
CONSTRUCTION
 10
2.149194
 20
9.711301
 40
0.120678
 50
153.418148
 51
206.580991
  0
ARC
  8
CONSTRUCTION
 10
2.104404
 20
9.688901
 40
0.070599
 50
206.588564
 51
269.892739
  0
ARC
  8
CONSTRUCTION
 10
2.103987
 20
9.695482
 40
0.077181
 50
270.2113
 51
325.0807
  0
LINE
  8
CONSTRUCTION
 10
2.332276
 11
2.332278
 20
9.613648
 21
9.751649
  0
ARC
  8
CONSTRUCTION
 10
2.281546
 20
9.751915
 40
0.050733
 50
359.698802
 51
90.305782
  0
ARC
  8
CONSTRUCTION
 10
2.281207
 20
9.715384
 40
0.087264
 50
89.9552
 51
153.2598
  0
LINE
  8
CONSTRUCTION
 10
2.203276
 11
2.203276
 20
9.613648
 21
9.802648
  0
LINE
  8
CONSTRUCTION
 10
2.427215
 11
2.427215
 20
9.883648
 21
9.613648
  0
LINE
  8
CONSTRUCTION
 10
2.391215
 11
2.466215
 20
9.799648
 21
9.799648
  0
LINE
  8
CONSTRUCTION
 10
2.498092
 11
2.642092
 20
9.723301
 21
9.723301
  0
ARC
  8
CONSTRUCTION
 10
2.553127
 20
9.726558
 40
0.089025
 50
357.902951
 51
30.171303
  0
ARC
  8
CONSTRUCTION
 10
2.572984
 20
9.738388
 40
0.065913
 50
29.956335
 51
89.906216
  0
ARC
  8
CONSTRUCTION
 10
2.573224
 20
9.733702
 40
0.070599
 50
90.107586
 51
153.41119
  0
ARC
  8
CONSTRUCTION
 10
2.618014
 20
9.711301
 40
0.120678
 50
153.418148
 51
206.580991
  0
ARC
  8
CONSTRUCTION
 10
2.573224
 20
9.688901
 40
0.070599
 50
206.588564
 51
269.892739
  0
ARC
  8
CONSTRUCTION
 10
2.572807
 20
9.695482
 40
0.077181
 50
270.2113
 51
325.0807
  0
ARC
  8
CONSTRUCTION
 10
2.788163
 20
9.724174
 40
0.078477
 50
89.6195
 51
170.8532
  0
LINE
  8
CONSTRUCTION
 10
2.710685
 11
2.710685
 20
9.802648
 21
9.613648
  0
LINE
  8
CONSTRUCTION
 10
2.672096
 11
2.749274
 20
9.613648
 21
9.613648
  0
LINE
  8
CONSTRUCTION
 10
2.866004
 11
2.866004
 20
9.613648
 21
9.883648
  0
LINE
  8
CONSTRUCTION
 10
2.866004
 11
2.843963
 20
9.883648
 21
9.883648
  0
LINE
  8
CONSTRUCTION
 10
2.818684
 11
2.866004
 20
9.613648
 21
9.613648
  0
LINE
  8
CONSTRUCTION
 10
2.866004
 11
2.913324
 20
9.613648
 21
9.613648
  0
LINE
  8
CONSTRUCTION
 10
3.011913
 11
3.011913
 20
9.886648
 21
9.862648
  0
LINE
  8
CONSTRUCTION
 10
3.011913
 11
3.011913
 20
9.613648
 21
9.802648
  0
LINE
  8
CONSTRUCTION
 10
2.973324
 11
3.050502
 20
9.613648
 21
9.613648
  0
LINE
  8
CONSTRUCTION
 10
3.239502
 11
3.239504
 20
9.613648
 21
9.751649
  0
ARC
  8
CONSTRUCTION
 10
3.188772
 20
9.751915
 40
0.050733
 50
359.698802
 51
90.305782
  0
ARC
  8
CONSTRUCTION
 10
3.188433
 20
9.715384
 40
0.087264
 50
89.9552
 51
153.2598
  0
LINE
  8
CONSTRUCTION
 10
3.110502
 11
3.110502
 20
9.613648
 21
9.802648
  0
LINE
  8
CONSTRUCTION
 10
3.270318
 11
3.414318
 20
9.723301
 21
9.723301
  0
ARC
  8
CONSTRUCTION
 10
3.325353
 20
9.726558
 40
0.089025
 50
357.902951
 51
30.171303
  0
ARC
  8
CONSTRUCTION
 10
3.34521
 20
9.738388
 40
0.065913
 50
29.956335
 51
89.906216
  0
ARC
  8
CONSTRUCTION
 10
3.34545
 20
9.733702
 40
0.070599
 50
90.107586
 51
153.41119
  0
ARC
  8
CONSTRUCTION
 10
3.39024
 20
9.711301
 40
0.120678
 50
153.418148
 51
206.580991
  0
ARC
  8
CONSTRUCTION
 10
3.34545
 20
9.688901
 40
0.070599
 50
206.588564
 51
269.892739
  0
ARC
  8
CONSTRUCTION
 10
3.345033
 20
9.695482
 40
0.077181
 50
270.2113
 51
325.0807
  0
LINE
  8
APS_GEOMETRY
 10
1.740197
 11
3.15441
 20
19.353553
 21
17.93934
  0
LINE
  8
APS_GEOMETRY
 10
32.259803
 11
30.84559
 20
19.353553
 21
17.93934
  0
ARC
  8
CONSTRUCTION
 10
17.271491
 20
19.281485
 40
0.182363
 50
301.026839
 51
310.045456
  0
ARC
  8
CONSTRUCTION
 10
17.327428
 20
19.218547
 40
0.09822
 50
308.687092
 51
51.311843
  0
ARC
  8
CONSTRUCTION
 10
17.273825
 20
19.153307
 40
0.182653
 50
50.979262
 51
129.021887
  0
ARC
  8
CONSTRUCTION
 10
17.220218
 20
19.218544
 40
0.09822
 50
128.687682
 51
231.31267
  0
ARC
  8
CONSTRUCTION
 10
17.26593
 20
19.282608
 40
0.176853
 50
232.7266
 51
245.3459
  0
LINE
  8
CONSTRUCTION
 10
17.230928
 11
17.230927
 20
19.08872
 21
18.944719
  0
ARC
  8
CONSTRUCTION
 10
17.234185
 20
19.033685
 40
0.089025
 50
267.902951
 51
300.171303
  0
ARC
  8
CONSTRUCTION
 10
17.246015
 20
19.013828
 40
0.065913
 50
299.956335
 51
359.906216
  0
ARC
  8
CONSTRUCTION
 10
17.241329
 20
19.013587
 40
0.070599
 50
0.107586
 51
63.41119
  0
ARC
  8
CONSTRUCTION
 10
17.218927
 20
18.968798
 40
0.120678
 50
63.418148
 51
116.580991
  0
ARC
  8
CONSTRUCTION
 10
17.196527
 20
19.013588
 40
0.070599
 50
116.588564
 51
179.892739
  0
ARC
  8
CONSTRUCTION
 10
17.203109
 20
19.014005
 40
0.077181
 50
180.2113
 51
235.0807
  0
LINE
  8
CONSTRUCTION
 10
17.121274
 11
17.259275
 20
18.785715
 21
18.785713
  0
ARC
  8
CONSTRUCTION
 10
17.259542
 20
18.836445
 40
0.050733
 50
269.698802
 51
0.305782
  0
ARC
  8
CONSTRUCTION
 10
17.22301
 20
18.836784
 40
0.087264
 50
359.9552
 51
63.2598
  0
LINE
  8
CONSTRUCTION
 10
17.121274
 11
17.310274
 20
18.914715
 21
18.914715
  0
LINE
  8
CONSTRUCTION
 10
17.391274
 11
17.121274
 20
18.690776
 21
18.690776
  0
LINE
  8
CONSTRUCTION
 10
17.307274
 11
17.307274
 20
18.726776
 21
18.651776
  0
LINE
  8
CONSTRUCTION
 10
17.230928
 11
17.230927
 20
18.6199
 21
18.475899
  0
ARC
  8
CONSTRUCTION
 10
17.234185
 20
18.564865
 40
0.089025
 50
267.902951
 51
300.171303
  0
ARC
  8
CONSTRUCTION
 10
17.246015
 20
18.545008
 40
0.065913
 50
299.956335
 51
359.906216
  0
ARC
  8
CONSTRUCTION
 10
17.241329
 20
18.544767
 40
0.070599
 50
0.107586
 51
63.41119
  0
ARC
  8
CONSTRUCTION
 10
17.218927
 20
18.499978
 40
0.120678
 50
63.418148
 51
116.580991
  0
ARC
  8
CONSTRUCTION
 10
17.196527
 20
18.544768
 40
0.070599
 50
116.588564
 51
179.892739
  0
ARC
  8
CONSTRUCTION
 10
17.203109
 20
18.545185
 40
0.077181
 50
180.2113
 51
235.0807
  0
ARC
  8
CONSTRUCTION
 10
17.2318
 20
18.329828
 40
0.078477
 50
359.6195
 51
80.8532
  0
LINE
  8
CONSTRUCTION
 10
17.310274
 11
17.121274
 20
18.407306
 21
18.407306
  0
LINE
  8
CONSTRUCTION
 10
17.121274
 11
17.121274
 20
18.445896
 21
18.368717
  0
LINE
  8
CONSTRUCTION
 10
17.121274
 11
17.391274
 20
18.251988
 21
18.251988
  0
LINE
  8
CONSTRUCTION
 10
17.391274
 11
17.391274
 20
18.251988
 21
18.274028
  0
LINE
  8
CONSTRUCTION
 10
17.121274
 11
17.121274
 20
18.299307
 21
18.251988
  0
LINE
  8
CONSTRUCTION
 10
17.121274
 11
17.121274
 20
18.251988
 21
18.204668
  0
LINE
  8
CONSTRUCTION
 10
17.394274
 11
17.370274
 20
18.106079
 21
18.106079
  0
LINE
  8
CONSTRUCTION
 10
17.121274
 11
17.310274
 20
18.106079
 21
18.106079
  0
LINE
  8
CONSTRUCTION
 10
17.121274
 11
17.121274
 20
18.144668
 21
18.06749
  0
LINE
  8
CONSTRUCTION
 10
17.121274
 11
17.259275
 20
17.87849
 21
17.878487
  0
ARC
  8
CONSTRUCTION
 10
17.259542
 20
17.92922
 40
0.050733
 50
269.698802
 51
0.305782
  0
ARC
  8
CONSTRUCTION
 10
17.22301
 20
17.929559
 40
0.087264
 50
359.9552
 51
63.2598
  0
LINE
  8
CONSTRUCTION
 10
17.121274
 11
17.310274
 20
18.00749
 21
18.00749
  0
LINE
  8
CONSTRUCTION
 10
17.230928
 11
17.230927
 20
17.847674
 21
17.703674
  0
ARC
  8
CONSTRUCTION
 10
17.234185
 20
17.792639
 40
0.089025
 50
267.902951
 51
300.171303
  0
ARC
  8
CONSTRUCTION
 10
17.246015
 20
17.772782
 40
0.065913
 50
299.956335
 51
359.906216
  0
ARC
  8
CONSTRUCTION
 10
17.241329
 20
17.772541
 40
0.070599
 50
0.107586
 51
63.41119
  0
ARC
  8
CONSTRUCTION
 10
17.218927
 20
17.727752
 40
0.120678
 50
63.418148
 51
116.580991
  0
ARC
  8
CONSTRUCTION
 10
17.196527
 20
17.772542
 40
0.070599
 50
116.588564
 51
179.892739
  0
ARC
  8
CONSTRUCTION
 10
17.203109
 20
17.772959
 40
0.077181
 50
180.2113
 51
235.0807
  0
LINE
  8
APS_GEOMETRY
 10
1.59375
 11
25.723392
 20
9.5
 21
9.5
  0
LINE
  8
APS_GEOMETRY
 10
32.40625
 11
28.575412
 20
9.5
 21
9.5
  0
LINE
  8
APS_GEOMETRY
 10
17.0
 11
17.0
 20
19.5
 21
5.53994
  0
LINE
  8
APS_GEOMETRY
 10
17.0
 11
17.0
 20
3.131761
 21
0.0
  0
LINE
  8
CONSTRUCTION
 10
3.118794
 11
3.220146
 20
17.293306
 21
17.394658
  0
ARC
  8
CONSTRUCTION
 10
3.165934
 20
17.44887
 40
0.076667
 50
315.0
 51
135.0
  0
LINE
  8
CONSTRUCTION
 10
3.111722
 11
3.010371
 20
17.503081
 21
17.401729
  0
LINE
  8
CONSTRUCTION
 10
3.010371
 11
3.222503
 20
17.401729
 21
17.189597
  0
LINE
  8
CONSTRUCTION
 10
3.213074
 11
3.363924
 20
17.387587
 21
17.331018
  0
CIRCLE
  8
CONSTRUCTION
 10
3.621575
 20
17.631257
 40
0.03
  0
ARC
  8
CONSTRUCTION
 10
3.702809
 20
17.825505
 40
0.11194
 50
247.7274
 51
292.2726
  0
ARC
  8
CONSTRUCTION
 10
3.702599
 20
17.828193
 40
0.11451
 50
291.860287
 51
338.140726
  0
ARC
  8
CONSTRUCTION
 10
3.707575
 20
17.826646
 40
0.109317
 50
337.922067
 51
42.893283
  0
ARC
  8
CONSTRUCTION
 10
3.715634
 20
17.833899
 40
0.098477
 50
42.993348
 51
116.191207
  0
ARC
  8
CONSTRUCTION
 10
3.733931
 20
17.796854
 40
0.139793
 50
116.219129
 51
153.775441
  0
ARC
  8
CONSTRUCTION
 10
3.710717
 20
17.807552
 40
0.114243
 50
153.443904
 51
183.941081
  0
LINE
  8
CONSTRUCTION
 10
3.596744
 11
3.518962
 20
17.7997
 21
17.910481
  0
LINE
  8
CONSTRUCTION
 10
3.518962
 11
3.625028
 20
17.910481
 21
18.016547
  0
LINE
  8
CONSTRUCTION
 10
3.72337
 11
3.712764
 20
18.095659
 21
18.085052
  0
LINE
  8
CONSTRUCTION
 10
3.712764
 11
3.702157
 20
18.085052
 21
18.095659
  0
LINE
  8
CONSTRUCTION
 10
3.702157
 11
3.712764
 20
18.095659
 21
18.106265
  0
LINE
  8
CONSTRUCTION
 10
3.712764
 11
3.73822
 20
18.106265
 21
18.08081
  0
LINE
  8
CONSTRUCTION
 10
3.73822
 11
3.750948
 20
18.08081
 21
18.063839
  0
LINE
  8
CONSTRUCTION
 10
3.750948
 11
3.757312
 20
18.063839
 21
18.04899
  0
LINE
  8
CONSTRUCTION
 10
3.775082
 11
3.764475
 20
18.147002
 21
18.136395
  0
LINE
  8
CONSTRUCTION
 10
3.764475
 11
3.753869
 20
18.136395
 21
18.147002
  0
LINE
  8
CONSTRUCTION
 10
3.753869
 11
3.764475
 20
18.147002
 21
18.157608
  0
LINE
  8
CONSTRUCTION
 10
3.764475
 11
3.789931
 20
18.157608
 21
18.132152
  0
LINE
  8
CONSTRUCTION
 10
3.789931
 11
3.802659
 20
18.132152
 21
18.115182
  0
LINE
  8
CONSTRUCTION
 10
3.802659
 11
3.809023
 20
18.115182
 21
18.100333
  0
LINE
  8
CONSTRUCTION
 10
30.192113
 11
30.293465
 20
17.898283
 21
17.796931
  0
ARC
  8
CONSTRUCTION
 10
30.347676
 20
17.851142
 40
0.076667
 50
225.0
 51
45.0
  0
LINE
  8
CONSTRUCTION
 10
30.401888
 11
30.300536
 20
17.905354
 21
18.006706
  0
LINE
  8
CONSTRUCTION
 10
30.300536
 11
30.088404
 20
18.006706
 21
17.794574
  0
LINE
  8
CONSTRUCTION
 10
30.286394
 11
30.229825
 20
17.804002
 21
17.653152
  0
CIRCLE
  8
CONSTRUCTION
 10
30.530064
 20
17.395501
 40
0.03
  0
ARC
  8
CONSTRUCTION
 10
30.724312
 20
17.314267
 40
0.11194
 50
157.7274
 51
202.2726
  0
ARC
  8
CONSTRUCTION
 10
30.727
 20
17.314477
 40
0.11451
 50
201.860287
 51
248.140726
  0
ARC
  8
CONSTRUCTION
 10
30.725453
 20
17.309501
 40
0.109317
 50
247.922067
 51
312.893283
  0
ARC
  8
CONSTRUCTION
 10
30.732705
 20
17.301442
 40
0.098477
 50
312.993348
 51
26.191207
  0
ARC
  8
CONSTRUCTION
 10
30.695661
 20
17.283145
 40
0.139793
 50
26.219129
 51
63.775441
  0
ARC
  8
CONSTRUCTION
 10
30.706359
 20
17.306359
 40
0.114243
 50
63.443904
 51
93.941081
  0
LINE
  8
CONSTRUCTION
 10
30.698507
 11
30.809287
 20
17.420332
 21
17.498114
  0
LINE
  8
CONSTRUCTION
 10
30.809287
 11
30.915353
 20
17.498114
 21
17.392048
  0
LINE
  8
CONSTRUCTION
 10
30.994465
 11
30.983859
 20
17.293706
 21
17.304312
  0
LINE
  8
CONSTRUCTION
 10
30.983859
 11
30.994465
 20
17.304312
 21
17.314919
  0
LINE
  8
CONSTRUCTION
 10
30.994465
 11
31.005072
 20
17.314919
 21
17.304312
  0
LINE
  8
CONSTRUCTION
 10
31.005072
 11
30.979616
 20
17.304312
 21
17.278856
  0
LINE
  8
CONSTRUCTION
 10
30.979616
 11
30.962646
 20
17.278856
 21
17.266129
  0
LINE
  8
CONSTRUCTION
 10
30.962646
 11
30.947796
 20
17.266129
 21
17.259765
  0
LINE
  8
CONSTRUCTION
 10
31.045808
 11
31.035202
 20
17.241994
 21
17.252601
  0
LINE
  8
CONSTRUCTION
 10
31.035202
 11
31.045808
 20
17.252601
 21
17.263207
  0
LINE
  8
CONSTRUCTION
 10
31.045808
 11
31.056415
 20
17.263207
 21
17.252601
  0
LINE
  8
CONSTRUCTION
 10
31.056415
 11
31.030959
 20
17.252601
 21
17.227145
  0
LINE
  8
CONSTRUCTION
 10
31.030959
 11
31.013988
 20
17.227145
 21
17.214417
  0
LINE
  8
CONSTRUCTION
 10
31.013988
 11
30.999139
 20
17.214417
 21
17.208053
  0
LINE
  8
CONSTRUCTION
 10
17.242634
 11
17.242634
 20
3.530476
 21
3.616258
  0
LINE
  8
CONSTRUCTION
 10
17.242634
 11
17.242634
 20
3.616258
 21
3.702039
  0
LINE
  8
CONSTRUCTION
 10
17.242634
 11
16.742634
 20
3.616258
 21
3.616258
  0
LINE
  8
CONSTRUCTION
 10
16.742634
 11
16.828416
 20
3.616258
 21
3.530476
  0
ARC
  8
CONSTRUCTION
 10
17.085135
 20
3.960926
 40
0.1637
 50
308.687092
 51
51.311843
  0
ARC
  8
CONSTRUCTION
 10
16.995796
 20
3.852192
 40
0.304422
 50
50.979262
 51
129.021887
  0
ARC
  8
CONSTRUCTION
 10
16.906453
 20
3.960922
 40
0.1637
 50
128.688216
 51
231.311676
  0
ARC
  8
CONSTRUCTION
 10
16.88746
 20
3.935972
 40
0.132356
 50
230.977916
 51
309.022283
  0
ARC
  8
CONSTRUCTION
 10
16.861795
 20
3.969258
 40
0.174378
 50
308.687897
 51
51.311964
  0
ARC
  8
CONSTRUCTION
 10
16.869587
 20
3.980995
 40
0.16035
 50
50.8638
 51
79.5859
  0
CIRCLE
  8
CONSTRUCTION
 10
17.192445
 20
4.304184
 40
0.05
  0
ARC
  8
CONSTRUCTION
 10
17.059257
 20
4.628842
 40
0.186567
 50
292.7274
 51
337.2726
  0
ARC
  8
CONSTRUCTION
 10
17.055841
 20
4.631762
 40
0.19085
 50
336.860287
 51
23.140726
  0
ARC
  8
CONSTRUCTION
 10
17.063528
 20
4.635804
 40
0.182194
 50
22.922067
 51
87.893283
  0
ARC
  8
CONSTRUCTION
 10
17.064479
 20
4.653848
 40
0.164128
 50
87.993348
 51
161.191207
  0
ARC
  8
CONSTRUCTION
 10
17.129699
 20
4.631754
 40
0.232989
 50
161.219129
 51
198.775441
  0
ARC
  8
CONSTRUCTION
 10
17.089733
 20
4.617004
 40
0.190406
 50
198.443904
 51
228.941081
  0
LINE
  8
CONSTRUCTION
 10
16.964668
 11
16.742445
 20
4.473431
 21
4.51232
  0
LINE
  8
CONSTRUCTION
 10
16.742445
 11
16.742445
 20
4.51232
 21
4.76232
  0
LINE
  8
CONSTRUCTION
 10
16.765109
 11
16.765109
 20
4.971453
 21
4.946453
  0
LINE
  8
CONSTRUCTION
 10
16.765109
 11
16.740109
 20
4.946453
 21
4.946453
  0
LINE
  8
CONSTRUCTION
 10
16.740109
 11
16.740109
 20
4.946453
 21
4.971453
  0
LINE
  8
CONSTRUCTION
 10
16.740109
 11
16.800109
 20
4.971453
 21
4.971453
  0
LINE
  8
CONSTRUCTION
 10
16.800109
 11
16.835109
 20
4.971453
 21
4.966453
  0
LINE
  8
CONSTRUCTION
 10
16.835109
 11
16.860109
 20
4.966453
 21
4.956453
  0
LINE
  8
CONSTRUCTION
 10
16.765543
 11
16.765543
 20
5.092903
 21
5.067903
  0
LINE
  8
CONSTRUCTION
 10
16.765543
 11
16.740543
 20
5.067903
 21
5.067903
  0
LINE
  8
CONSTRUCTION
 10
16.740543
 11
16.740543
 20
5.067903
 21
5.092903
  0
LINE
  8
CONSTRUCTION
 10
16.740543
 11
16.800543
 20
5.092903
 21
5.092903
  0
LINE
  8
CONSTRUCTION
 10
16.800543
 11
16.835543
 20
5.092903
 21
5.087903
  0
LINE
  8
CONSTRUCTION
 10
16.835543
 11
16.860543
 20
5.087903
 21
5.077903
  0
ARC
  8
CONSTRUCTION
 10
26.296584
 20
9.433857
 40
0.155906
 50
208.751948
 51
258.48402
  0
ARC
  8
CONSTRUCTION
 10
26.329618
 20
9.576799
 40
0.302589
 50
257.758312
 51
286.480382
  0
ARC
  8
CONSTRUCTION
 10
26.376569
 20
9.423299
 40
0.142083
 50
285.885172
 51
325.197039
  0
ARC
  8
CONSTRUCTION
 10
26.377682
 20
9.424207
 40
0.141694
 50
324.638795
 51
31.268726
  0
ARC
  8
CONSTRUCTION
 10
26.372962
 20
9.422578
 40
0.146578
 50
30.855291
 51
75.402309
  0
ARC
  8
CONSTRUCTION
 10
26.343237
 20
9.30404
 40
0.268783
 50
75.6389
 51
104.3611
  0
ARC
  8
CONSTRUCTION
 10
26.177632
 20
9.850657
 40
0.30285
 50
289.068075
 51
345.63788
  0
LINE
  8
CONSTRUCTION
 10
26.471017
 11
26.165459
 20
9.775535
 21
9.775534
  0
ARC
  8
CONSTRUCTION
 10
26.803467
 20
9.431563
 40
0.1637
 50
218.6887
 51
321.3113
  0
ARC
  8
CONSTRUCTION
 10
26.694736
 20
9.520906
 40
0.304422
 50
320.978113
 51
39.020738
  0
ARC
  8
CONSTRUCTION
 10
26.80347
 20
9.610245
 40
0.1637
 50
38.688157
 51
141.312908
  0
ARC
  8
CONSTRUCTION
 10
26.9122
 20
9.520902
 40
0.304422
 50
140.978975
 51
219.021025
  0
CIRCLE
  8
CONSTRUCTION
 10
27.146506
 20
9.324151
 40
0.05
  0
ARC
  8
CONSTRUCTION
 10
27.453336
 20
9.730269
 40
0.216644
 50
295.9876
 51
313.9964
  0
ARC
  8
CONSTRUCTION
 10
27.528895
 20
9.652194
 40
0.107994
 50
313.930836
 51
46.072395
  0
ARC
  8
CONSTRUCTION
 10
27.481593
 20
9.583388
 40
0.190856
 50
50.178678
 51
129.819556
  0
ARC
  8
CONSTRUCTION
 10
27.42267
 20
9.654979
 40
0.098139
 50
130.163237
 51
229.839346
  0
ARC
  8
CONSTRUCTION
 10
27.46877
 20
9.710025
 40
0.169939
 50
229.930688
 51
276.210455
  0
ARC
  8
CONSTRUCTION
 10
27.505546
 20
9.372143
 40
0.169939
 50
49.934494
 51
96.213281
  0
ARC
  8
CONSTRUCTION
 10
27.545019
 20
9.407753
 40
0.117506
 50
306.509514
 51
53.490801
  0
ARC
  8
CONSTRUCTION
 10
27.481598
 20
9.492846
 40
0.223633
 50
233.400655
 51
306.598732
  0
ARC
  8
CONSTRUCTION
 10
27.418176
 20
9.407753
 40
0.117506
 50
126.510158
 51
233.489989
  0
ARC
  8
CONSTRUCTION
 10
27.562836
 20
9.216962
 40
0.356933
 50
112.535105
 51
126.952643
  0
LINE
  8
CONSTRUCTION
 10
27.759214
 11
27.844995
 20
9.273962
 21
9.273962
  0
LINE
  8
CONSTRUCTION
 10
27.844995
 11
27.930777
 20
9.273962
 21
9.273962
  0
LINE
  8
CONSTRUCTION
 10
27.844995
 11
27.844995
 20
9.273962
 21
9.773962
  0
LINE
  8
CONSTRUCTION
 10
27.844995
 11
27.759214
 20
9.773962
 21
9.68818
  0
LINE
  8
CONSTRUCTION
 10
28.085979
 11
28.060979
 20
9.751487
 21
9.751487
  0
LINE
  8
CONSTRUCTION
 10
28.060979
 11
28.060979
 20
9.751487
 21
9.776487
  0
LINE
  8
CONSTRUCTION
 10
28.060979
 11
28.085979
 20
9.776487
 21
9.776487
  0
LINE
  8
CONSTRUCTION
 10
28.085979
 11
28.085979
 20
9.776487
 21
9.716487
  0
LINE
  8
CONSTRUCTION
 10
28.085979
 11
28.080979
 20
9.716487
 21
9.681487
  0
LINE
  8
CONSTRUCTION
 10
28.080979
 11
28.070979
 20
9.681487
 21
9.656487
  0
LINE
  8
CONSTRUCTION
 10
28.207429
 11
28.182429
 20
9.751053
 21
9.751053
  0
LINE
  8
CONSTRUCTION
 10
28.182429
 11
28.182429
 20
9.751053
 21
9.776053
  0
LINE
  8
CONSTRUCTION
 10
28.182429
 11
28.207429
 20
9.776053
 21
9.776053
  0
LINE
  8
CONSTRUCTION
 10
28.207429
 11
28.207429
 20
9.776053
 21
9.716053
  0
LINE
  8
CONSTRUCTION
 10
28.207429
 11
28.202429
 20
9.716053
 21
9.681053
  0
LINE
  8
CONSTRUCTION
 10
28.202429
 11
28.192429
 20
9.681053
 21
9.656053
  0
LINE
  8
CONSTRUCTION
 10
2.125
 11
15.8125
 20
19.75
 21
19.75
  0
ARC
  8
CONSTRUCTION
 10
15.8125
 20
19.25
 40
0.5
 50
0.0
 51
90.0
  0
LINE
  8
CONSTRUCTION
 10
16.3125
 11
16.3125
 20
19.25
 21
3.0
  0
ARC
  8
CONSTRUCTION
 10
15.8125
 20
3.0
 40
0.5
 50
270.0
 51
0.0
  0
LINE
  8
CONSTRUCTION
 10
15.8125
 11
2.125
 20
2.5
 21
2.5
  0
LINE
  8
CONSTRUCTION
 10
31.875
 11
18.1875
 20
19.75
 21
19.75
  0
ARC
  8
CONSTRUCTION
 10
18.1875
 20
19.25
 40
0.5
 50
90.0
 51
180.0
  0
LINE
  8
CONSTRUCTION
 10
17.6875
 11
17.6875
 20
19.25
 21
3.0
  0
ARC
  8
CONSTRUCTION
 10
18.1875
 20
3.0
 40
0.5
 50
180.0
 51
270.0
  0
LINE
  8
CONSTRUCTION
 10
18.1875
 11
31.875
 20
2.5
 21
2.5
  0
ARC
  8
CONSTRUCTION
 10
31.875
 20
3.25
 40
0.75
 50
270.0
 51
0.0
  0
LINE
  8
CONSTRUCTION
 10
32.625
 11
32.625
 20
3.25
 21
19.0
  0
ARC
  8
CONSTRUCTION
 10
31.875
 20
19.0
 40
0.75
 50
0.0
 51
90.0
  0
ARC
  8
CONSTRUCTION
 10
2.125
 20
19.0
 40
0.75
 50
90.0
 51
180.0
  0
LINE
  8
CONSTRUCTION
 10
1.375
 11
1.375
 20
19.0
 21
3.25
  0
ARC
  8
CONSTRUCTION
 10
2.125
 20
3.25
 40
0.75
 50
180.0
 51
270.0
  0
TEXT
  8
TEXT
 10
6.319133
 20
14.718694
 30
0.0
 40
1.0
 50
0.0
  1
KARRAN
  0
TEXT
  8
TEXT
 10
6.319133
 20
13.218694
 30
0.0
 40
1.0
 50
0.0
  1

  0
TEXT
  8
TEXT
 10
21.563458
 20
7.889877
 30
0.0
 40
0.5
 50
0.0
  1
Please check template
  0
TEXT
  8
TEXT
 10
21.563458
 20
7.139877
 30
0.0
 40
0.5
 50
0.0
  1
with sink for
  0
TEXT
  8
TEXT
 10
21.563458
 20
6.389877
 30
0.0
 40
0.5
 50
0.0
  1
accuracy
  0
TEXT
  8
TEXT
 10
21.563458
 20
5.639877
 30
0.0
 40
0.5
 50
0.0
  1

  0
TEXT
  8
TEXT
 10
21.560993
 20
4.446483
 30
0.0
 40
0.5
 50
0.0
  1
Template line is
  0
TEXT
  8
TEXT
 10
21.560993
 20
3.696483
 30
0.0
 40
0.5
 50
0.0
  1
inside perimeter
  0
TEXT
  8
TEXT
 10
21.560993
 20
2.946483
 30
0.0
 40
0.5
 50
0.0
  1
of sink
  0
TEXT
  8
TEXT
 10
21.560993
 20
2.196483
 30
0.0
 40
0.5
 50
0.0
  1

  0
TEXT
  8
TEXT
 10
6.401605
 20
13.221541
 30
0.0
 40
1.0
 50
0.0
  1
QA-750
  0
TEXT
  8
TEXT
 10
6.401605
 20
11.721541
 30
0.0
 40
1.0
 50
0.0
  1

  0
ENDSEC
  0
EOF
