  0
SECTION
  2
ENTITIES
  0
LINE
  8
APS_GEOMETRY
 10
0.0
 11
4.460423
 20
10.625
 21
10.625
  0
LINE
  8
APS_GEOMETRY
 10
8.172735
 11
33.25
 20
10.625
 21
10.625
  0
LINE
  8
APS_GEOMETRY
 10
16.625
 11
16.625
 20
21.25
 21
19.229681
  0
LINE
  8
APS_GEOMETRY
 10
16.625
 11
16.625
 20
16.294817
 21
0.0
  0
ARC
  8
CONSTRUCTION
 10
5.441773
 20
10.533468
 40
0.155906
 50
208.751948
 51
258.48402
  0
ARC
  8
CONSTRUCTION
 10
5.474807
 20
10.67641
 40
0.302589
 50
257.758312
 51
286.480382
  0
ARC
  8
CONSTRUCTION
 10
5.521758
 20
10.52291
 40
0.142083
 50
285.885172
 51
325.197039
  0
ARC
  8
CONSTRUCTION
 10
5.522871
 20
10.523818
 40
0.141694
 50
324.638795
 51
31.268726
  0
ARC
  8
CONSTRUCTION
 10
5.518151
 20
10.522189
 40
0.146578
 50
30.855291
 51
75.402309
  0
ARC
  8
CONSTRUCTION
 10
5.488427
 20
10.403651
 40
0.268783
 50
75.6389
 51
104.3611
  0
ARC
  8
CONSTRUCTION
 10
5.322821
 20
10.950268
 40
0.30285
 50
289.068075
 51
345.63788
  0
LINE
  8
CONSTRUCTION
 10
5.616206
 11
5.310649
 20
10.875146
 21
10.875145
  0
ARC
  8
CONSTRUCTION
 10
5.90125
 20
10.533468
 40
0.155906
 50
208.751948
 51
258.48402
  0
ARC
  8
CONSTRUCTION
 10
5.934284
 20
10.67641
 40
0.302589
 50
257.758312
 51
286.480382
  0
ARC
  8
CONSTRUCTION
 10
5.981235
 20
10.52291
 40
0.142083
 50
285.885172
 51
325.197039
  0
ARC
  8
CONSTRUCTION
 10
5.982348
 20
10.523818
 40
0.141694
 50
324.638795
 51
31.268726
  0
ARC
  8
CONSTRUCTION
 10
5.977628
 20
10.522189
 40
0.146578
 50
30.855291
 51
75.402309
  0
ARC
  8
CONSTRUCTION
 10
5.947903
 20
10.403651
 40
0.268783
 50
75.6389
 51
104.3611
  0
ARC
  8
CONSTRUCTION
 10
5.782298
 20
10.950268
 40
0.30285
 50
289.068075
 51
345.63788
  0
LINE
  8
CONSTRUCTION
 10
6.075683
 11
5.770125
 20
10.875146
 21
10.875145
  0
CIRCLE
  8
CONSTRUCTION
 10
6.259792
 20
10.423762
 40
0.05
  0
LINE
  8
CONSTRUCTION
 10
6.743978
 11
6.410645
 20
10.37357
 21
10.373573
  0
ARC
  8
CONSTRUCTION
 10
6.586884
 20
10.373808
 40
0.176239
 50
121.813563
 51
180.07656
  0
LINE
  8
CONSTRUCTION
 10
6.493978
 11
6.682866
 20
10.52357
 21
10.640237
  0
ARC
  8
CONSTRUCTION
 10
6.621382
 20
10.745792
 40
0.122156
 50
300.220013
 51
59.779436
  0
ARC
  8
CONSTRUCTION
 10
6.588418
 20
10.675834
 40
0.199311
 50
61.713834
 51
118.283685
  0
ARC
  8
CONSTRUCTION
 10
6.549901
 20
10.746265
 40
0.119039
 50
118.0207
 51
169.4717
  0
ARC
  8
CONSTRUCTION
 10
7.017784
 20
10.55695
 40
0.186567
 50
202.7274
 51
247.2726
  0
ARC
  8
CONSTRUCTION
 10
7.020704
 20
10.560366
 40
0.19085
 50
246.860287
 51
293.140726
  0
ARC
  8
CONSTRUCTION
 10
7.024745
 20
10.552679
 40
0.182194
 50
292.922067
 51
357.893283
  0
ARC
  8
CONSTRUCTION
 10
7.042789
 20
10.551728
 40
0.164128
 50
357.993348
 51
71.191207
  0
ARC
  8
CONSTRUCTION
 10
7.020695
 20
10.486508
 40
0.232989
 50
71.219129
 51
108.775441
  0
ARC
  8
CONSTRUCTION
 10
7.005945
 20
10.526474
 40
0.190406
 50
108.443904
 51
138.941081
  0
LINE
  8
CONSTRUCTION
 10
6.862373
 11
6.901262
 20
10.651539
 21
10.873762
  0
LINE
  8
CONSTRUCTION
 10
6.901262
 11
7.151262
 20
10.873762
 21
10.873762
  0
LINE
  8
CONSTRUCTION
 10
7.360394
 11
7.335394
 20
10.851098
 21
10.851098
  0
LINE
  8
CONSTRUCTION
 10
7.335394
 11
7.335394
 20
10.851098
 21
10.876098
  0
LINE
  8
CONSTRUCTION
 10
7.335394
 11
7.360394
 20
10.876098
 21
10.876098
  0
LINE
  8
CONSTRUCTION
 10
7.360394
 11
7.360394
 20
10.876098
 21
10.816098
  0
LINE
  8
CONSTRUCTION
 10
7.360394
 11
7.355394
 20
10.816098
 21
10.781098
  0
LINE
  8
CONSTRUCTION
 10
7.355394
 11
7.345394
 20
10.781098
 21
10.756098
  0
LINE
  8
CONSTRUCTION
 10
7.481845
 11
7.456845
 20
10.850664
 21
10.850664
  0
LINE
  8
CONSTRUCTION
 10
7.456845
 11
7.456845
 20
10.850664
 21
10.875664
  0
LINE
  8
CONSTRUCTION
 10
7.456845
 11
7.481845
 20
10.875664
 21
10.875664
  0
LINE
  8
CONSTRUCTION
 10
7.481845
 11
7.481845
 20
10.875664
 21
10.815664
  0
LINE
  8
CONSTRUCTION
 10
7.481845
 11
7.476845
 20
10.815664
 21
10.780664
  0
LINE
  8
CONSTRUCTION
 10
7.476845
 11
7.466845
 20
10.780664
 21
10.755664
  0
LINE
  8
CONSTRUCTION
 10
16.84917
 11
16.84917
 20
17.1737
 21
16.840367
  0
ARC
  8
CONSTRUCTION
 10
16.848933
 20
17.016606
 40
0.176239
 50
211.813966
 51
270.076964
  0
LINE
  8
CONSTRUCTION
 10
16.699172
 11
16.582503
 20
16.923699
 21
17.112586
  0
ARC
  8
CONSTRUCTION
 10
16.476949
 20
17.051102
 40
0.122156
 50
30.220417
 51
149.779839
  0
ARC
  8
CONSTRUCTION
 10
16.546907
 20
17.018138
 40
0.199311
 50
151.714237
 51
208.284088
  0
ARC
  8
CONSTRUCTION
 10
16.476477
 20
16.97962
 40
0.119039
 50
208.021104
 51
259.472104
  0
LINE
  8
CONSTRUCTION
 10
16.849167
 11
16.849166
 20
17.273701
 21
17.359482
  0
LINE
  8
CONSTRUCTION
 10
16.849166
 11
16.849166
 20
17.359482
 21
17.445263
  0
LINE
  8
CONSTRUCTION
 10
16.849166
 11
16.349166
 20
17.359482
 21
17.359478
  0
LINE
  8
CONSTRUCTION
 10
16.349166
 11
16.434948
 20
17.359478
 21
17.273698
  0
CIRCLE
  8
CONSTRUCTION
 10
16.798975
 20
17.594409
 40
0.05
  0
LINE
  8
CONSTRUCTION
 10
16.849163
 11
16.849163
 20
18.078596
 21
17.745263
  0
ARC
  8
CONSTRUCTION
 10
16.848927
 20
17.921502
 40
0.176239
 50
211.813966
 51
270.076964
  0
LINE
  8
CONSTRUCTION
 10
16.699165
 11
16.582497
 20
17.828595
 21
18.017482
  0
ARC
  8
CONSTRUCTION
 10
16.476943
 20
17.955998
 40
0.122156
 50
30.220417
 51
149.779839
  0
ARC
  8
CONSTRUCTION
 10
16.546901
 20
17.923034
 40
0.199311
 50
151.714237
 51
208.284088
  0
ARC
  8
CONSTRUCTION
 10
16.47647
 20
17.884516
 40
0.119039
 50
208.021104
 51
259.472104
  0
ARC
  8
CONSTRUCTION
 10
16.665781
 20
18.352401
 40
0.186567
 50
292.727804
 51
337.273004
  0
ARC
  8
CONSTRUCTION
 10
16.662366
 20
18.35532
 40
0.19085
 50
336.860691
 51
23.14113
  0
ARC
  8
CONSTRUCTION
 10
16.670053
 20
18.359362
 40
0.182194
 50
22.92247
 51
87.893687
  0
ARC
  8
CONSTRUCTION
 10
16.671003
 20
18.377406
 40
0.164128
 50
87.993751
 51
161.191611
  0
ARC
  8
CONSTRUCTION
 10
16.736224
 20
18.355312
 40
0.232989
 50
161.219533
 51
198.775845
  0
ARC
  8
CONSTRUCTION
 10
16.696258
 20
18.340562
 40
0.190406
 50
198.444307
 51
228.941485
  0
LINE
  8
CONSTRUCTION
 10
16.571194
 11
16.348971
 20
18.196989
 21
18.235876
  0
LINE
  8
CONSTRUCTION
 10
16.348971
 11
16.348969
 20
18.235876
 21
18.485876
  0
LINE
  8
CONSTRUCTION
 10
16.371631
 11
16.371631
 20
18.695009
 21
18.670009
  0
LINE
  8
CONSTRUCTION
 10
16.371631
 11
16.346631
 20
18.670009
 21
18.670009
  0
LINE
  8
CONSTRUCTION
 10
16.346631
 11
16.346631
 20
18.670009
 21
18.695009
  0
LINE
  8
CONSTRUCTION
 10
16.346631
 11
16.406631
 20
18.695009
 21
18.695009
  0
LINE
  8
CONSTRUCTION
 10
16.406631
 11
16.441631
 20
18.695009
 21
18.690009
  0
LINE
  8
CONSTRUCTION
 10
16.441631
 11
16.466631
 20
18.690009
 21
18.680009
  0
LINE
  8
CONSTRUCTION
 10
16.372065
 11
16.372065
 20
18.81646
 21
18.79146
  0
LINE
  8
CONSTRUCTION
 10
16.372065
 11
16.347065
 20
18.79146
 21
18.791459
  0
LINE
  8
CONSTRUCTION
 10
16.347065
 11
16.347065
 20
18.791459
 21
18.816459
  0
LINE
  8
CONSTRUCTION
 10
16.347065
 11
16.407065
 20
18.816459
 21
18.81646
  0
LINE
  8
CONSTRUCTION
 10
16.407065
 11
16.442065
 20
18.81646
 21
18.81146
  0
LINE
  8
CONSTRUCTION
 10
16.442065
 11
16.467065
 20
18.81146
 21
18.80146
  0
LINE
  8
APS_GEOMETRY
 10
0.470467
 11
2.238234
 20
20.969146
 21
19.20138
  0
LINE
  8
CONSTRUCTION
 10
2.249306
 11
2.350103
 20
18.589262
 21
18.691166
  0
ARC
  8
CONSTRUCTION
 10
2.295596
 20
18.74508
 40
0.076667
 50
315.312936
 51
135.312936
  0
LINE
  8
CONSTRUCTION
 10
2.241089
 11
2.140292
 20
18.798995
 21
18.697091
  0
LINE
  8
CONSTRUCTION
 10
2.140292
 11
2.35358
 20
18.697091
 21
18.486121
  0
LINE
  8
CONSTRUCTION
 10
2.343071
 11
2.494227
 20
18.684056
 21
18.628312
  0
LINE
  8
CONSTRUCTION
 10
2.750907
 11
2.787102
 20
18.887812
 21
18.924404
  0
LINE
  8
CONSTRUCTION
 10
2.787102
 11
2.823297
 20
18.924404
 21
18.960996
  0
LINE
  8
CONSTRUCTION
 10
2.787102
 11
2.573814
 20
18.924404
 21
19.135374
  0
LINE
  8
CONSTRUCTION
 10
2.573814
 11
2.574212
 20
19.135374
 21
19.062588
  0
LINE
  8
CONSTRUCTION
 10
2.685082
 11
2.674534
 20
19.228689
 21
19.218025
  0
LINE
  8
CONSTRUCTION
 10
2.674534
 11
2.663869
 20
19.218025
 21
19.228573
  0
LINE
  8
CONSTRUCTION
 10
2.663869
 11
2.674418
 20
19.228573
 21
19.239237
  0
LINE
  8
CONSTRUCTION
 10
2.674418
 11
2.700012
 20
19.239237
 21
19.213921
  0
LINE
  8
CONSTRUCTION
 10
2.700012
 11
2.712833
 20
19.213921
 21
19.19702
  0
LINE
  8
CONSTRUCTION
 10
2.712833
 11
2.719278
 20
19.19702
 21
19.182206
  0
LINE
  8
CONSTRUCTION
 10
2.736513
 11
2.725964
 20
19.280313
 21
19.269649
  0
LINE
  8
CONSTRUCTION
 10
2.725964
 11
2.7153
 20
19.269649
 21
19.280198
  0
LINE
  8
CONSTRUCTION
 10
2.7153
 11
2.725848
 20
19.280198
 21
19.290862
  0
LINE
  8
CONSTRUCTION
 10
2.725848
 11
2.751443
 20
19.290862
 21
19.265546
  0
LINE
  8
CONSTRUCTION
 10
2.751443
 11
2.764263
 20
19.265546
 21
19.248645
  0
LINE
  8
CONSTRUCTION
 10
2.764263
 11
2.770708
 20
19.248645
 21
19.233831
  0
ARC
  8
CONSTRUCTION
 10
0.161305
 20
10.920676
 40
0.182363
 50
31.026839
 51
40.045456
  0
ARC
  8
CONSTRUCTION
 10
0.224243
 20
10.976614
 40
0.09822
 50
38.687092
 51
141.311843
  0
ARC
  8
CONSTRUCTION
 10
0.289483
 20
10.92301
 40
0.182653
 50
140.979262
 51
219.021887
  0
ARC
  8
CONSTRUCTION
 10
0.224246
 20
10.869403
 40
0.09822
 50
218.687682
 51
321.31267
  0
ARC
  8
CONSTRUCTION
 10
0.160181
 20
10.915115
 40
0.176853
 50
322.7266
 51
335.3459
  0
LINE
  8
CONSTRUCTION
 10
0.35407
 11
0.49807
 20
10.880113
 21
10.880112
  0
ARC
  8
CONSTRUCTION
 10
0.409105
 20
10.88337
 40
0.089025
 50
357.902951
 51
30.171303
  0
ARC
  8
CONSTRUCTION
 10
0.428962
 20
10.8952
 40
0.065913
 50
29.956335
 51
89.906216
  0
ARC
  8
CONSTRUCTION
 10
0.429202
 20
10.890514
 40
0.070599
 50
90.107586
 51
153.41119
  0
ARC
  8
CONSTRUCTION
 10
0.473992
 20
10.868112
 40
0.120678
 50
153.418148
 51
206.580991
  0
ARC
  8
CONSTRUCTION
 10
0.429202
 20
10.845712
 40
0.070599
 50
206.588564
 51
269.892739
  0
ARC
  8
CONSTRUCTION
 10
0.428785
 20
10.852294
 40
0.077181
 50
270.2113
 51
325.0807
  0
LINE
  8
CONSTRUCTION
 10
0.657074
 11
0.657076
 20
10.770459
 21
10.90846
  0
ARC
  8
CONSTRUCTION
 10
0.606344
 20
10.908727
 40
0.050733
 50
359.698802
 51
90.305782
  0
ARC
  8
CONSTRUCTION
 10
0.606005
 20
10.872195
 40
0.087264
 50
89.9552
 51
153.2598
  0
LINE
  8
CONSTRUCTION
 10
0.528074
 11
0.528074
 20
10.770459
 21
10.959459
  0
LINE
  8
CONSTRUCTION
 10
0.752013
 11
0.752013
 20
11.040459
 21
10.770459
  0
LINE
  8
CONSTRUCTION
 10
0.716013
 11
0.791013
 20
10.956459
 21
10.956459
  0
LINE
  8
CONSTRUCTION
 10
0.82289
 11
0.96689
 20
10.880113
 21
10.880112
  0
ARC
  8
CONSTRUCTION
 10
0.877925
 20
10.88337
 40
0.089025
 50
357.902951
 51
30.171303
  0
ARC
  8
CONSTRUCTION
 10
0.897782
 20
10.8952
 40
0.065913
 50
29.956335
 51
89.906216
  0
ARC
  8
CONSTRUCTION
 10
0.898022
 20
10.890514
 40
0.070599
 50
90.107586
 51
153.41119
  0
ARC
  8
CONSTRUCTION
 10
0.942812
 20
10.868112
 40
0.120678
 50
153.418148
 51
206.580991
  0
ARC
  8
CONSTRUCTION
 10
0.898022
 20
10.845712
 40
0.070599
 50
206.588564
 51
269.892739
  0
ARC
  8
CONSTRUCTION
 10
0.897605
 20
10.852294
 40
0.077181
 50
270.2113
 51
325.0807
  0
ARC
  8
CONSTRUCTION
 10
1.112961
 20
10.880985
 40
0.078477
 50
89.6195
 51
170.8532
  0
LINE
  8
CONSTRUCTION
 10
1.035483
 11
1.035483
 20
10.959459
 21
10.770459
  0
LINE
  8
CONSTRUCTION
 10
0.996894
 11
1.074072
 20
10.770459
 21
10.770459
  0
LINE
  8
CONSTRUCTION
 10
1.190802
 11
1.190802
 20
10.770459
 21
11.040459
  0
LINE
  8
CONSTRUCTION
 10
1.190802
 11
1.168761
 20
11.040459
 21
11.040459
  0
LINE
  8
CONSTRUCTION
 10
1.143482
 11
1.190802
 20
10.770459
 21
10.770459
  0
LINE
  8
CONSTRUCTION
 10
1.190802
 11
1.238122
 20
10.770459
 21
10.770459
  0
LINE
  8
CONSTRUCTION
 10
1.336711
 11
1.336711
 20
11.043459
 21
11.019459
  0
LINE
  8
CONSTRUCTION
 10
1.336711
 11
1.336711
 20
10.770459
 21
10.959459
  0
LINE
  8
CONSTRUCTION
 10
1.298122
 11
1.3753
 20
10.770459
 21
10.770459
  0
LINE
  8
CONSTRUCTION
 10
1.5643
 11
1.564302
 20
10.770459
 21
10.90846
  0
ARC
  8
CONSTRUCTION
 10
1.51357
 20
10.908727
 40
0.050733
 50
359.698802
 51
90.305782
  0
ARC
  8
CONSTRUCTION
 10
1.513231
 20
10.872195
 40
0.087264
 50
89.9552
 51
153.2598
  0
LINE
  8
CONSTRUCTION
 10
1.4353
 11
1.4353
 20
10.770459
 21
10.959459
  0
LINE
  8
CONSTRUCTION
 10
1.595116
 11
1.739116
 20
10.880113
 21
10.880112
  0
ARC
  8
CONSTRUCTION
 10
1.650151
 20
10.88337
 40
0.089025
 50
357.902951
 51
30.171303
  0
ARC
  8
CONSTRUCTION
 10
1.670008
 20
10.8952
 40
0.065913
 50
29.956335
 51
89.906216
  0
ARC
  8
CONSTRUCTION
 10
1.670248
 20
10.890514
 40
0.070599
 50
90.107586
 51
153.41119
  0
ARC
  8
CONSTRUCTION
 10
1.715037
 20
10.868112
 40
0.120678
 50
153.418148
 51
206.580991
  0
ARC
  8
CONSTRUCTION
 10
1.670247
 20
10.845712
 40
0.070599
 50
206.588564
 51
269.892739
  0
ARC
  8
CONSTRUCTION
 10
1.669831
 20
10.852294
 40
0.077181
 50
270.2113
 51
325.0807
  0
ARC
  8
CONSTRUCTION
 10
16.315793
 20
0.202118
 40
0.182363
 50
121.026839
 51
130.045456
  0
ARC
  8
CONSTRUCTION
 10
16.259856
 20
0.265055
 40
0.09822
 50
128.687092
 51
231.311843
  0
ARC
  8
CONSTRUCTION
 10
16.313459
 20
0.330295
 40
0.182653
 50
230.979262
 51
309.021887
  0
ARC
  8
CONSTRUCTION
 10
16.367066
 20
0.265058
 40
0.09822
 50
308.687682
 51
51.31267
  0
ARC
  8
CONSTRUCTION
 10
16.321354
 20
0.200994
 40
0.176853
 50
52.7266
 51
65.3459
  0
LINE
  8
CONSTRUCTION
 10
16.356356
 11
16.356357
 20
0.394883
 21
0.538883
  0
ARC
  8
CONSTRUCTION
 10
16.353099
 20
0.449918
 40
0.089025
 50
87.902951
 51
120.171303
  0
ARC
  8
CONSTRUCTION
 10
16.341269
 20
0.469775
 40
0.065913
 50
119.956335
 51
179.906216
  0
ARC
  8
CONSTRUCTION
 10
16.345955
 20
0.470015
 40
0.070599
 50
180.107586
 51
243.41119
  0
ARC
  8
CONSTRUCTION
 10
16.368357
 20
0.514804
 40
0.120678
 50
243.418148
 51
296.580991
  0
ARC
  8
CONSTRUCTION
 10
16.390757
 20
0.470014
 40
0.070599
 50
296.588564
 51
359.892739
  0
ARC
  8
CONSTRUCTION
 10
16.384175
 20
0.469598
 40
0.077181
 50
0.2113
 51
55.0807
  0
LINE
  8
CONSTRUCTION
 10
16.46601
 11
16.328009
 20
0.697887
 21
0.697889
  0
ARC
  8
CONSTRUCTION
 10
16.327742
 20
0.647157
 40
0.050733
 50
89.698802
 51
180.305782
  0
ARC
  8
CONSTRUCTION
 10
16.364274
 20
0.646818
 40
0.087264
 50
179.9552
 51
243.2598
  0
LINE
  8
CONSTRUCTION
 10
16.46601
 11
16.27701
 20
0.568887
 21
0.568887
  0
LINE
  8
CONSTRUCTION
 10
16.19601
 11
16.46601
 20
0.792826
 21
0.792826
  0
LINE
  8
CONSTRUCTION
 10
16.28001
 11
16.28001
 20
0.756826
 21
0.831826
  0
LINE
  8
CONSTRUCTION
 10
16.356356
 11
16.356357
 20
0.863702
 21
1.007703
  0
ARC
  8
CONSTRUCTION
 10
16.353099
 20
0.918737
 40
0.089025
 50
87.902951
 51
120.171303
  0
ARC
  8
CONSTRUCTION
 10
16.341269
 20
0.938594
 40
0.065913
 50
119.956335
 51
179.906216
  0
ARC
  8
CONSTRUCTION
 10
16.345955
 20
0.938835
 40
0.070599
 50
180.107586
 51
243.41119
  0
ARC
  8
CONSTRUCTION
 10
16.368357
 20
0.983624
 40
0.120678
 50
243.418148
 51
296.580991
  0
ARC
  8
CONSTRUCTION
 10
16.390757
 20
0.938834
 40
0.070599
 50
296.588564
 51
359.892739
  0
ARC
  8
CONSTRUCTION
 10
16.384175
 20
0.938417
 40
0.077181
 50
0.2113
 51
55.0807
  0
ARC
  8
CONSTRUCTION
 10
16.355484
 20
1.153774
 40
0.078477
 50
179.6195
 51
260.8532
  0
LINE
  8
CONSTRUCTION
 10
16.27701
 11
16.46601
 20
1.076296
 21
1.076296
  0
LINE
  8
CONSTRUCTION
 10
16.46601
 11
16.46601
 20
1.037707
 21
1.114885
  0
LINE
  8
CONSTRUCTION
 10
16.46601
 11
16.19601
 20
1.231615
 21
1.231615
  0
LINE
  8
CONSTRUCTION
 10
16.19601
 11
16.19601
 20
1.231615
 21
1.209574
  0
LINE
  8
CONSTRUCTION
 10
16.46601
 11
16.46601
 20
1.184295
 21
1.231615
  0
LINE
  8
CONSTRUCTION
 10
16.46601
 11
16.46601
 20
1.231615
 21
1.278934
  0
LINE
  8
CONSTRUCTION
 10
16.19301
 11
16.21701
 20
1.377523
 21
1.377523
  0
LINE
  8
CONSTRUCTION
 10
16.46601
 11
16.27701
 20
1.377523
 21
1.377523
  0
LINE
  8
CONSTRUCTION
 10
16.46601
 11
16.46601
 20
1.338934
 21
1.416113
  0
LINE
  8
CONSTRUCTION
 10
16.46601
 11
16.328009
 20
1.605113
 21
1.605115
  0
ARC
  8
CONSTRUCTION
 10
16.327742
 20
1.554383
 40
0.050733
 50
89.698802
 51
180.305782
  0
ARC
  8
CONSTRUCTION
 10
16.364274
 20
1.554044
 40
0.087264
 50
179.9552
 51
243.2598
  0
LINE
  8
CONSTRUCTION
 10
16.46601
 11
16.27701
 20
1.476113
 21
1.476113
  0
LINE
  8
CONSTRUCTION
 10
16.356356
 11
16.356357
 20
1.635928
 21
1.779929
  0
ARC
  8
CONSTRUCTION
 10
16.353099
 20
1.690963
 40
0.089025
 50
87.902951
 51
120.171303
  0
ARC
  8
CONSTRUCTION
 10
16.341269
 20
1.71082
 40
0.065913
 50
119.956335
 51
179.906216
  0
ARC
  8
CONSTRUCTION
 10
16.345955
 20
1.711061
 40
0.070599
 50
180.107586
 51
243.41119
  0
ARC
  8
CONSTRUCTION
 10
16.368357
 20
1.75585
 40
0.120678
 50
243.418148
 51
296.580991
  0
ARC
  8
CONSTRUCTION
 10
16.390757
 20
1.71106
 40
0.070599
 50
296.588564
 51
359.892739
  0
ARC
  8
CONSTRUCTION
 10
16.384175
 20
1.710643
 40
0.077181
 50
0.2113
 51
55.0807
  0
ARC
  8
APS_GEOMETRY
 10
281.258506
 20
10.625
 40
281.258506
 50
178.031887
 51
181.968113
  0
ARC
  8
APS_GEOMETRY
 10
1.165326
 20
1.0
 40
1.0
 50
181.968113
 51
270.0
  0
LINE
  8
APS_GEOMETRY
 10
1.165326
 11
32.084674
 20
0.0
 21
0.0
  0
ARC
  8
APS_GEOMETRY
 10
32.084674
 20
1.0
 40
1.0
 50
270.0
 51
358.031887
  0
ARC
  8
APS_GEOMETRY
 10
-248.008506
 20
10.625
 40
281.258506
 50
358.031887
 51
1.968113
  0
ARC
  8
APS_GEOMETRY
 10
32.084674
 20
20.25
 40
1.0
 50
1.968113
 51
90.0
  0
LINE
  8
APS_GEOMETRY
 10
32.084674
 11
1.165326
 20
21.25
 21
21.25
  0
ARC
  8
APS_GEOMETRY
 10
1.165326
 20
20.25
 40
1.0
 50
90.0
 51
178.031887
  0
TEXT
  8
TEXT
 10
21.871693
 20
17.436
 30
0.0
 40
1.0
 50
0.0
  1
KARRAN
  0
TEXT
  8
TEXT
 10
21.871693
 20
15.936
 30
0.0
 40
1.0
 50
0.0
  1

  0
TEXT
  8
TEXT
 10
23.618736
 20
15.218599
 30
0.0
 40
1.0
 50
0.0
  1
QT
  0
TEXT
  8
TEXT
 10
23.618736
 20
13.718599
 30
0.0
 40
1.0
 50
0.0
  1

  0
ENDSEC
  0
EOF
