  0
SECTION
  2
ENTITIES
  0
LINE
  8
APS_GEOMETRY
 10
1.0942
 11
28.3433
 20
0.0942
 21
0.0942
  0
ARC
  8
APS_GEOMETRY
 10
28.3433
 20
1.0942
 40
1.0
 50
270.0
 51
0.0
  0
LINE
  8
APS_GEOMETRY
 10
29.3433
 11
29.3433
 20
1.0942
 21
14.9683
  0
ARC
  8
APS_GEOMETRY
 10
28.3433
 20
14.9683
 40
1.0
 50
0.0
 51
90.0
  0
LINE
  8
APS_GEOMETRY
 10
28.3433
 11
16.286168
 20
15.9683
 21
15.9683
  0
ARC
  8
APS_GEOMETRY
 10
16.286168
 20
18.0625
 40
2.0942
 50
237.790962
 51
270.0
  0
ARC
  8
APS_GEOMETRY
 10
7.84375
 20
4.660857
 40
13.744943
 50
57.790962
 51
121.977523
  0
ARC
  8
APS_GEOMETRY
 10
1.0942
 20
15.47183
 40
1.0
 50
121.977523
 51
180.0
  0
LINE
  8
APS_GEOMETRY
 10
0.0942
 11
0.0942
 20
15.47183
 21
1.0942
  0
ARC
  8
APS_GEOMETRY
 10
1.0942
 20
1.0942
 40
1.0
 50
180.0
 51
270.0
  0
LINE
  8
APS_GEOMETRY
 10
14.71875
 11
14.71875
 20
0.0942
 21
2.56207
  0
LINE
  8
APS_GEOMETRY
 10
0.0942
 11
11.350162
 20
8.283015
 21
8.283015
  0
LINE
  8
APS_GEOMETRY
 10
15.393087
 11
29.3433
 20
8.283015
 21
8.283015
  0
LINE
  8
APS_GEOMETRY
 10
7.87152
 11
7.87152
 20
18.405772
 21
12.739459
  0
LINE
  8
APS_GEOMETRY
 10
7.87152
 11
7.87152
 20
9.371582
 21
0.0942
  0
LINE
  8
APS_GEOMETRY
 10
22.314734
 11
22.314734
 20
15.9683
 21
12.716696
  0
LINE
  8
APS_GEOMETRY
 10
22.314734
 11
22.314734
 20
9.250494
 21
0.0942
  0
LINE
  8
APS_GEOMETRY
 10
0.219675
 11
1.633889
 20
15.956812
 21
14.542598
  0
LINE
  8
APS_GEOMETRY
 10
0.387093
 11
1.801307
 20
0.387093
 21
1.801307
  0
LINE
  8
APS_GEOMETRY
 10
29.050407
 11
27.636193
 20
0.387093
 21
1.801307
  0
LINE
  8
APS_GEOMETRY
 10
29.050407
 11
27.636193
 20
15.675407
 21
14.261193
  0
LINE
  8
APS_GEOMETRY
 10
15.705257
 11
17.11947
 20
16.050482
 21
17.464696
  0
LINE
  8
CONSTRUCTION
 10
1.561027
 11
1.646694
 20
14.139689
 21
14.254605
  0
ARC
  8
CONSTRUCTION
 10
1.585227
 20
14.300427
 40
0.076667
 50
323.296482
 51
143.296482
  0
LINE
  8
CONSTRUCTION
 10
1.523761
 11
1.438094
 20
14.346249
 21
14.231333
  0
LINE
  8
CONSTRUCTION
 10
1.438094
 11
1.678616
 20
14.231333
 21
14.05203
  0
LINE
  8
CONSTRUCTION
 10
1.640717
 11
1.798151
 20
14.246588
 21
14.212378
  0
LINE
  8
CONSTRUCTION
 10
2.016302
 11
2.047063
 20
14.505013
 21
14.546277
  0
LINE
  8
CONSTRUCTION
 10
2.047063
 11
2.077825
 20
14.546277
 21
14.587542
  0
LINE
  8
CONSTRUCTION
 10
2.047063
 11
1.806542
 20
14.546277
 21
14.72558
  0
LINE
  8
CONSTRUCTION
 10
1.806542
 11
1.817045
 20
14.72558
 21
14.653554
  0
LINE
  8
CONSTRUCTION
 10
1.903771
 11
1.894806
 20
14.833444
 21
14.821418
  0
LINE
  8
CONSTRUCTION
 10
1.894806
 11
1.88278
 20
14.821418
 21
14.830383
  0
LINE
  8
CONSTRUCTION
 10
1.88278
 11
1.891745
 20
14.830383
 21
14.842409
  0
LINE
  8
CONSTRUCTION
 10
1.891745
 11
1.920607
 20
14.842409
 21
14.820893
  0
LINE
  8
CONSTRUCTION
 10
1.920607
 11
1.935651
 20
14.820893
 21
14.805936
  0
LINE
  8
CONSTRUCTION
 10
1.935651
 11
1.944091
 20
14.805936
 21
14.792161
  0
LINE
  8
CONSTRUCTION
 10
1.947533
 11
1.938567
 20
14.891711
 21
14.879685
  0
LINE
  8
CONSTRUCTION
 10
1.938567
 11
1.926541
 20
14.879685
 21
14.88865
  0
LINE
  8
CONSTRUCTION
 10
1.926541
 11
1.935506
 20
14.88865
 21
14.900676
  0
LINE
  8
CONSTRUCTION
 10
1.935506
 11
1.964369
 20
14.900676
 21
14.87916
  0
LINE
  8
CONSTRUCTION
 10
1.964369
 11
1.979413
 20
14.87916
 21
14.864203
  0
LINE
  8
CONSTRUCTION
 10
1.979413
 11
1.987853
 20
14.864203
 21
14.850428
  0
LINE
  8
CONSTRUCTION
 10
1.650794
 11
1.749074
 20
2.186534
 21
2.0822
  0
ARC
  8
CONSTRUCTION
 10
1.80488
 20
2.134768
 40
0.076667
 50
223.288502
 51
43.288502
  0
LINE
  8
CONSTRUCTION
 10
1.860687
 11
1.762407
 20
2.187336
 21
2.29167
  0
LINE
  8
CONSTRUCTION
 10
1.762407
 11
1.544034
 20
2.29167
 21
2.085968
  0
LINE
  8
CONSTRUCTION
 10
1.742217
 11
1.681168
 20
2.089479
 21
1.940386
  0
LINE
  8
CONSTRUCTION
 10
1.931439
 11
1.96673
 20
1.674699
 21
1.637234
  0
LINE
  8
CONSTRUCTION
 10
1.96673
 11
2.00202
 20
1.637234
 21
1.59977
  0
LINE
  8
CONSTRUCTION
 10
1.96673
 11
2.185103
 20
1.637234
 21
1.842936
  0
LINE
  8
CONSTRUCTION
 10
2.185103
 11
2.112347
 20
1.842936
 21
1.84511
  0
LINE
  8
CONSTRUCTION
 10
2.274428
 11
2.264143
 20
1.728441
 21
1.73936
  0
LINE
  8
CONSTRUCTION
 10
2.264143
 11
2.275062
 20
1.73936
 21
1.749645
  0
LINE
  8
CONSTRUCTION
 10
2.275062
 11
2.285347
 20
1.749645
 21
1.738726
  0
LINE
  8
CONSTRUCTION
 10
2.285347
 11
2.259142
 20
1.738726
 21
1.714042
  0
LINE
  8
CONSTRUCTION
 10
2.259142
 11
2.241799
 20
1.714042
 21
1.701827
  0
LINE
  8
CONSTRUCTION
 10
2.241799
 11
2.226767
 20
1.701827
 21
1.695909
  0
LINE
  8
CONSTRUCTION
 10
2.324204
 11
2.313919
 20
1.675219
 21
1.686138
  0
LINE
  8
CONSTRUCTION
 10
2.313919
 11
2.324837
 20
1.686138
 21
1.696423
  0
LINE
  8
CONSTRUCTION
 10
2.324837
 11
2.335123
 20
1.696423
 21
1.685505
  0
LINE
  8
CONSTRUCTION
 10
2.335123
 11
2.308918
 20
1.685505
 21
1.66082
  0
LINE
  8
CONSTRUCTION
 10
2.308918
 11
2.291575
 20
1.66082
 21
1.648605
  0
LINE
  8
CONSTRUCTION
 10
2.291575
 11
2.276542
 20
1.648605
 21
1.642687
  0
LINE
  8
CONSTRUCTION
 10
27.228092
 11
27.313759
 20
1.681794
 21
1.79671
  0
ARC
  8
CONSTRUCTION
 10
27.252292
 20
1.842531
 40
0.076667
 50
323.296482
 51
143.296482
  0
LINE
  8
CONSTRUCTION
 10
27.190825
 11
27.105159
 20
1.888353
 21
1.773437
  0
LINE
  8
CONSTRUCTION
 10
27.105159
 11
27.34568
 20
1.773437
 21
1.594135
  0
LINE
  8
CONSTRUCTION
 10
27.307782
 11
27.465215
 20
1.788692
 21
1.754483
  0
LINE
  8
CONSTRUCTION
 10
27.683366
 11
27.714128
 20
2.047117
 21
2.088382
  0
LINE
  8
CONSTRUCTION
 10
27.714128
 11
27.74489
 20
2.088382
 21
2.129646
  0
LINE
  8
CONSTRUCTION
 10
27.714128
 11
27.473606
 20
2.088382
 21
2.267684
  0
LINE
  8
CONSTRUCTION
 10
27.473606
 11
27.484109
 20
2.267684
 21
2.195658
  0
LINE
  8
CONSTRUCTION
 10
27.570835
 11
27.56187
 20
2.375548
 21
2.363522
  0
LINE
  8
CONSTRUCTION
 10
27.56187
 11
27.549844
 20
2.363522
 21
2.372487
  0
LINE
  8
CONSTRUCTION
 10
27.549844
 11
27.558809
 20
2.372487
 21
2.384513
  0
LINE
  8
CONSTRUCTION
 10
27.558809
 11
27.587672
 20
2.384513
 21
2.362997
  0
LINE
  8
CONSTRUCTION
 10
27.587672
 11
27.602715
 20
2.362997
 21
2.348041
  0
LINE
  8
CONSTRUCTION
 10
27.602715
 11
27.611155
 20
2.348041
 21
2.334265
  0
LINE
  8
CONSTRUCTION
 10
27.614597
 11
27.605632
 20
2.433815
 21
2.421789
  0
LINE
  8
CONSTRUCTION
 10
27.605632
 11
27.593606
 20
2.421789
 21
2.430754
  0
LINE
  8
CONSTRUCTION
 10
27.593606
 11
27.602571
 20
2.430754
 21
2.442781
  0
LINE
  8
CONSTRUCTION
 10
27.602571
 11
27.631434
 20
2.442781
 21
2.421264
  0
LINE
  8
CONSTRUCTION
 10
27.631434
 11
27.646477
 20
2.421264
 21
2.406308
  0
LINE
  8
CONSTRUCTION
 10
27.646477
 11
27.654917
 20
2.406308
 21
2.392532
  0
LINE
  8
CONSTRUCTION
 10
27.247739
 11
27.352078
 20
14.397209
 21
14.298935
  0
ARC
  8
CONSTRUCTION
 10
27.404643
 20
14.354744
 40
0.076667
 50
226.714537
 51
46.714537
  0
LINE
  8
CONSTRUCTION
 10
27.457208
 11
27.352869
 20
14.410553
 21
14.508827
  0
LINE
  8
CONSTRUCTION
 10
27.352869
 11
27.147179
 20
14.508827
 21
14.290443
  0
LINE
  8
CONSTRUCTION
 10
27.344798
 11
27.292769
 20
14.305791
 21
14.153316
  0
LINE
  8
CONSTRUCTION
 10
27.558469
 11
27.595936
 20
13.90306
 21
13.867771
  0
LINE
  8
CONSTRUCTION
 10
27.595936
 11
27.633402
 20
13.867771
 21
13.832483
  0
LINE
  8
CONSTRUCTION
 10
27.595936
 11
27.801626
 20
13.867771
 21
14.086155
  0
LINE
  8
CONSTRUCTION
 10
27.801626
 11
27.728871
 20
14.086155
 21
14.083978
  0
LINE
  8
CONSTRUCTION
 10
27.897634
 11
27.886715
 20
13.977203
 21
13.987488
  0
LINE
  8
CONSTRUCTION
 10
27.886715
 11
27.896999
 20
13.987488
 21
13.998407
  0
LINE
  8
CONSTRUCTION
 10
27.896999
 11
27.907919
 20
13.998407
 21
13.988123
  0
LINE
  8
CONSTRUCTION
 10
27.907919
 11
27.883236
 20
13.988123
 21
13.961917
  0
LINE
  8
CONSTRUCTION
 10
27.883236
 11
27.866654
 20
13.961917
 21
13.948687
  0
LINE
  8
CONSTRUCTION
 10
27.866654
 11
27.852002
 20
13.948687
 21
13.941881
  0
LINE
  8
CONSTRUCTION
 10
27.950501
 11
27.939582
 20
13.927051
 21
13.937336
  0
LINE
  8
CONSTRUCTION
 10
27.939582
 11
27.949867
 20
13.937336
 21
13.948255
  0
LINE
  8
CONSTRUCTION
 10
27.949867
 11
27.960786
 20
13.948255
 21
13.93797
  0
LINE
  8
CONSTRUCTION
 10
27.960786
 11
27.936103
 20
13.93797
 21
13.911764
  0
LINE
  8
CONSTRUCTION
 10
27.936103
 11
27.919521
 20
13.911764
 21
13.898534
  0
LINE
  8
CONSTRUCTION
 10
27.919521
 11
27.904869
 20
13.898534
 21
13.891729
  0
LINE
  8
CONSTRUCTION
 10
16.964649
 11
17.078661
 20
17.913298
 21
17.826432
  0
ARC
  8
CONSTRUCTION
 10
17.125124
 20
17.887415
 40
0.076667
 50
232.696052
 51
52.696052
  0
LINE
  8
CONSTRUCTION
 10
17.171587
 11
17.057575
 20
17.948398
 21
18.035264
  0
LINE
  8
CONSTRUCTION
 10
17.057575
 11
16.875762
 20
18.035264
 21
17.796634
  0
LINE
  8
CONSTRUCTION
 10
17.070706
 11
17.034849
 20
17.832492
 21
17.675426
  0
LINE
  8
CONSTRUCTION
 10
17.484267
 11
17.325181
 20
17.33301
 21
17.45422
  0
ARC
  8
CONSTRUCTION
 10
17.409378
 20
17.390247
 40
0.105743
 50
84.509614
 51
142.772612
  0
LINE
  8
CONSTRUCTION
 10
17.419496
 11
17.552067
 20
17.495506
 21
17.482501
  0
ARC
  8
CONSTRUCTION
 10
17.561106
 20
17.555235
 40
0.073293
 50
262.916065
 51
22.475487
  0
ARC
  8
CONSTRUCTION
 10
17.519935
 20
17.533834
 40
0.119587
 50
24.409885
 51
80.979736
  0
ARC
  8
CONSTRUCTION
 10
17.527163
 20
17.581454
 40
0.071423
 50
80.716752
 51
132.167752
  0
CIRCLE
  8
CONSTRUCTION
 10
17.573699
 20
17.302731
 40
0.03
  0
ARC
  8
CONSTRUCTION
 10
17.779006
 20
17.227329
 40
0.09822
 50
181.384752
 51
284.007352
  0
ARC
  8
CONSTRUCTION
 10
17.759601
 20
17.309505
 40
0.182653
 50
283.674165
 51
1.71679
  0
ARC
  8
CONSTRUCTION
 10
17.843981
 20
17.312605
 40
0.09822
 50
1.384209
 51
104.008959
  0
ARC
  8
CONSTRUCTION
 10
17.863386
 20
17.230428
 40
0.182653
 50
103.675027
 51
181.717077
  0
ARC
  8
CONSTRUCTION
 10
17.995062
 20
17.062637
 40
0.09822
 50
181.383144
 51
284.007895
  0
ARC
  8
CONSTRUCTION
 10
17.975654
 20
17.144814
 40
0.182653
 50
283.675313
 51
1.717938
  0
ARC
  8
CONSTRUCTION
 10
18.060034
 20
17.147917
 40
0.09822
 50
1.384268
 51
104.007728
  0
ARC
  8
CONSTRUCTION
 10
18.055032
 20
17.166053
 40
0.079413
 50
103.673968
 51
181.718335
  0
ARC
  8
CONSTRUCTION
 10
18.080251
 20
17.166199
 40
0.104627
 50
181.383949
 51
284.008016
  0
ARC
  8
CONSTRUCTION
 10
18.083019
 20
17.158212
 40
0.09621
 50
283.559852
 51
312.281952
  0
LINE
  8
CONSTRUCTION
 10
18.278145
 11
18.266213
 20
17.088354
 21
17.097444
  0
LINE
  8
CONSTRUCTION
 10
18.266213
 11
18.275304
 20
17.097444
 21
17.109376
  0
LINE
  8
CONSTRUCTION
 10
18.275304
 11
18.287235
 20
17.109376
 21
17.100285
  0
LINE
  8
CONSTRUCTION
 10
18.287235
 11
18.265418
 20
17.100285
 21
17.07165
  0
LINE
  8
CONSTRUCTION
 10
18.265418
 11
18.250305
 20
17.07165
 21
17.056764
  0
LINE
  8
CONSTRUCTION
 10
18.250305
 11
18.236441
 20
17.056764
 21
17.048468
  0
LINE
  8
CONSTRUCTION
 10
18.33595
 11
18.324019
 20
17.043984
 21
17.053074
  0
LINE
  8
CONSTRUCTION
 10
18.324019
 11
18.333109
 20
17.053074
 21
17.065006
  0
LINE
  8
CONSTRUCTION
 10
18.333109
 11
18.345041
 20
17.065006
 21
17.055915
  0
LINE
  8
CONSTRUCTION
 10
18.345041
 11
18.323223
 20
17.055915
 21
17.02728
  0
LINE
  8
CONSTRUCTION
 10
18.323223
 11
18.30811
 20
17.02728
 21
17.012394
  0
LINE
  8
CONSTRUCTION
 10
18.30811
 11
18.294247
 20
17.012394
 21
17.004098
  0
ARC
  8
CONSTRUCTION
 10
14.494686
 20
0.403747
 40
0.182363
 50
122.81675
 51
131.835367
  0
ARC
  8
CONSTRUCTION
 10
14.43681
 20
0.464907
 40
0.09822
 50
130.477003
 51
233.101754
  0
ARC
  8
CONSTRUCTION
 10
14.48835
 20
0.53179
 40
0.182653
 50
232.769172
 51
310.811797
  0
ARC
  8
CONSTRUCTION
 10
14.543968
 20
0.468259
 40
0.09822
 50
310.477593
 51
53.10258
  0
ARC
  8
CONSTRUCTION
 10
14.50028
 20
0.402798
 40
0.176853
 50
54.516511
 51
67.135811
  0
LINE
  8
CONSTRUCTION
 10
14.529209
 11
14.524711
 20
0.597685
 21
0.741615
  0
ARC
  8
CONSTRUCTION
 10
14.524234
 20
0.652592
 40
0.089025
 50
89.692862
 51
121.961214
  0
ARC
  8
CONSTRUCTION
 10
14.51179
 20
0.67207
 40
0.065913
 50
121.746246
 51
181.696126
  0
ARC
  8
CONSTRUCTION
 10
14.516466
 20
0.672456
 40
0.070599
 50
181.897496
 51
245.2011
  0
ARC
  8
CONSTRUCTION
 10
14.537458
 20
0.717923
 40
0.120678
 50
245.208059
 51
298.370901
  0
ARC
  8
CONSTRUCTION
 10
14.561246
 20
0.673855
 40
0.070599
 50
298.378475
 51
1.682649
  0
ARC
  8
CONSTRUCTION
 10
14.55468
 20
0.673233
 40
0.077181
 50
2.001211
 51
56.870611
  0
LINE
  8
CONSTRUCTION
 10
14.629345
 11
14.491411
 20
0.903967
 21
0.899658
  0
ARC
  8
CONSTRUCTION
 10
14.492729
 20
0.848943
 40
0.050733
 50
91.488713
 51
182.095692
  0
ARC
  8
CONSTRUCTION
 10
14.529253
 20
0.849745
 40
0.087264
 50
181.745111
 51
245.049711
  0
LINE
  8
CONSTRUCTION
 10
14.633374
 11
14.444466
 20
0.77503
 21
0.769126
  0
LINE
  8
CONSTRUCTION
 10
14.356511
 11
14.626379
 20
0.990426
 21
0.998859
  0
LINE
  8
CONSTRUCTION
 10
14.441594
 11
14.439252
 20
0.957067
 21
1.032031
  0
LINE
  8
CONSTRUCTION
 10
14.514565
 11
14.510068
 20
1.066276
 21
1.210206
  0
ARC
  8
CONSTRUCTION
 10
14.509591
 20
1.121183
 40
0.089025
 50
89.692862
 51
121.961214
  0
ARC
  8
CONSTRUCTION
 10
14.497146
 20
1.140661
 40
0.065913
 50
121.746246
 51
181.696126
  0
ARC
  8
CONSTRUCTION
 10
14.501822
 20
1.141047
 40
0.070599
 50
181.897496
 51
245.2011
  0
ARC
  8
CONSTRUCTION
 10
14.522814
 20
1.186514
 40
0.120678
 50
245.208059
 51
298.370901
  0
ARC
  8
CONSTRUCTION
 10
14.546602
 20
1.142446
 40
0.070599
 50
298.378475
 51
1.682649
  0
ARC
  8
CONSTRUCTION
 10
14.540037
 20
1.141824
 40
0.077181
 50
2.001211
 51
56.870611
  0
ARC
  8
CONSTRUCTION
 10
14.504633
 20
1.356179
 40
0.078477
 50
181.409411
 51
262.643111
  0
LINE
  8
CONSTRUCTION
 10
14.428617
 11
14.617525
 20
1.276288
 21
1.282191
  0
LINE
  8
CONSTRUCTION
 10
14.61873
 11
14.61632
 20
1.243621
 21
1.320761
  0
LINE
  8
CONSTRUCTION
 10
14.612674
 11
14.342805
 20
1.437434
 21
1.429001
  0
LINE
  8
CONSTRUCTION
 10
14.342805
 11
14.343494
 20
1.429001
 21
1.406971
  0
LINE
  8
CONSTRUCTION
 10
14.614152
 11
14.612674
 20
1.390137
 21
1.437434
  0
LINE
  8
CONSTRUCTION
 10
14.612674
 11
14.611196
 20
1.437434
 21
1.484731
  0
LINE
  8
CONSTRUCTION
 10
14.335249
 11
14.359238
 20
1.574745
 21
1.575494
  0
LINE
  8
CONSTRUCTION
 10
14.608116
 11
14.419208
 20
1.583272
 21
1.577368
  0
LINE
  8
CONSTRUCTION
 10
14.609322
 11
14.606911
 20
1.544701
 21
1.621842
  0
LINE
  8
CONSTRUCTION
 10
14.601008
 11
14.463074
 20
1.81075
 21
1.806442
  0
ARC
  8
CONSTRUCTION
 10
14.464392
 20
1.755726
 40
0.050733
 50
91.488713
 51
182.095692
  0
ARC
  8
CONSTRUCTION
 10
14.500916
 20
1.756528
 40
0.087264
 50
181.745111
 51
245.049711
  0
LINE
  8
CONSTRUCTION
 10
14.605037
 11
14.416129
 20
1.681813
 21
1.675909
  0
LINE
  8
CONSTRUCTION
 10
14.490445
 11
14.485948
 20
1.838125
 21
1.982056
  0
ARC
  8
CONSTRUCTION
 10
14.48547
 20
1.893032
 40
0.089025
 50
89.692862
 51
121.961214
  0
ARC
  8
CONSTRUCTION
 10
14.473026
 20
1.91251
 40
0.065913
 50
121.746246
 51
181.696126
  0
ARC
  8
CONSTRUCTION
 10
14.477702
 20
1.912896
 40
0.070599
 50
181.897496
 51
245.2011
  0
ARC
  8
CONSTRUCTION
 10
14.498694
 20
1.958364
 40
0.120678
 50
245.208059
 51
298.370901
  0
ARC
  8
CONSTRUCTION
 10
14.522482
 20
1.914295
 40
0.070599
 50
298.378475
 51
1.682649
  0
ARC
  8
CONSTRUCTION
 10
14.515917
 20
1.913673
 40
0.077181
 50
2.001211
 51
56.870611
  0
LINE
  8
CONSTRUCTION
 10
12.441881
 11
12.108548
 20
8.092122
 21
8.092125
  0
ARC
  8
CONSTRUCTION
 10
12.284786
 20
8.09236
 40
0.176239
 50
121.813563
 51
180.07656
  0
LINE
  8
CONSTRUCTION
 10
12.191881
 11
12.380768
 20
8.242122
 21
8.358789
  0
ARC
  8
CONSTRUCTION
 10
12.319285
 20
8.464344
 40
0.122156
 50
300.220013
 51
59.779436
  0
ARC
  8
CONSTRUCTION
 10
12.286321
 20
8.394386
 40
0.199311
 50
61.713834
 51
118.283685
  0
ARC
  8
CONSTRUCTION
 10
12.247803
 20
8.464817
 40
0.119039
 50
118.0207
 51
169.4717
  0
ARC
  8
CONSTRUCTION
 10
12.700768
 20
8.249624
 40
0.1637
 50
218.687092
 51
321.311843
  0
ARC
  8
CONSTRUCTION
 10
12.592034
 20
8.338963
 40
0.304422
 50
320.979262
 51
39.021887
  0
ARC
  8
CONSTRUCTION
 10
12.700764
 20
8.428306
 40
0.1637
 50
38.688216
 51
141.311676
  0
ARC
  8
CONSTRUCTION
 10
12.675814
 20
8.447299
 40
0.132356
 50
140.977916
 51
219.022283
  0
ARC
  8
CONSTRUCTION
 10
12.7091
 20
8.472964
 40
0.174378
 50
218.687897
 51
321.311964
  0
ARC
  8
CONSTRUCTION
 10
12.720837
 20
8.465172
 40
0.16035
 50
320.8638
 51
349.5859
  0
CIRCLE
  8
CONSTRUCTION
 10
13.044025
 20
8.142314
 40
0.05
  0
LINE
  8
CONSTRUCTION
 10
13.528212
 11
13.194879
 20
8.092122
 21
8.092125
  0
ARC
  8
CONSTRUCTION
 10
13.371118
 20
8.09236
 40
0.176239
 50
121.813563
 51
180.07656
  0
LINE
  8
CONSTRUCTION
 10
13.278212
 11
13.4671
 20
8.242122
 21
8.358789
  0
ARC
  8
CONSTRUCTION
 10
13.405616
 20
8.464344
 40
0.122156
 50
300.220013
 51
59.779436
  0
ARC
  8
CONSTRUCTION
 10
13.372652
 20
8.394386
 40
0.199311
 50
61.713834
 51
118.283685
  0
ARC
  8
CONSTRUCTION
 10
13.334134
 20
8.464817
 40
0.119039
 50
118.0207
 51
169.4717
  0
LINE
  8
CONSTRUCTION
 10
14.059834
 11
13.643167
 20
8.258963
 21
8.258963
  0
LINE
  8
CONSTRUCTION
 10
13.643167
 11
13.643167
 20
8.258963
 21
8.286741
  0
LINE
  8
CONSTRUCTION
 10
13.643167
 11
13.920945
 20
8.286741
 21
8.592296
  0
LINE
  8
CONSTRUCTION
 10
13.920945
 11
13.948722
 20
8.592296
 21
8.592296
  0
LINE
  8
CONSTRUCTION
 10
13.948722
 11
13.948722
 20
8.592296
 21
8.092296
  0
ARC
  8
CONSTRUCTION
 10
14.303766
 20
8.249624
 40
0.1637
 50
218.687092
 51
321.311843
  0
ARC
  8
CONSTRUCTION
 10
14.195032
 20
8.338963
 40
0.304422
 50
320.979262
 51
39.021887
  0
ARC
  8
CONSTRUCTION
 10
14.303762
 20
8.428306
 40
0.1637
 50
38.688216
 51
141.311676
  0
ARC
  8
CONSTRUCTION
 10
14.278812
 20
8.447299
 40
0.132356
 50
140.977916
 51
219.022283
  0
ARC
  8
CONSTRUCTION
 10
14.312098
 20
8.472964
 40
0.174378
 50
218.687897
 51
321.311964
  0
ARC
  8
CONSTRUCTION
 10
14.323835
 20
8.465172
 40
0.16035
 50
320.8638
 51
349.5859
  0
LINE
  8
CONSTRUCTION
 10
14.653079
 11
14.628079
 20
8.56965
 21
8.56965
  0
LINE
  8
CONSTRUCTION
 10
14.628079
 11
14.628079
 20
8.56965
 21
8.59465
  0
LINE
  8
CONSTRUCTION
 10
14.628079
 11
14.653079
 20
8.59465
 21
8.59465
  0
LINE
  8
CONSTRUCTION
 10
14.653079
 11
14.653079
 20
8.59465
 21
8.53465
  0
LINE
  8
CONSTRUCTION
 10
14.653079
 11
14.648079
 20
8.53465
 21
8.49965
  0
LINE
  8
CONSTRUCTION
 10
14.648079
 11
14.638079
 20
8.49965
 21
8.47465
  0
LINE
  8
CONSTRUCTION
 10
14.77453
 11
14.74953
 20
8.569216
 21
8.569216
  0
LINE
  8
CONSTRUCTION
 10
14.74953
 11
14.74953
 20
8.569216
 21
8.594216
  0
LINE
  8
CONSTRUCTION
 10
14.74953
 11
14.77453
 20
8.594216
 21
8.594216
  0
LINE
  8
CONSTRUCTION
 10
14.77453
 11
14.77453
 20
8.594216
 21
8.534216
  0
LINE
  8
CONSTRUCTION
 10
14.77453
 11
14.76953
 20
8.534216
 21
8.499216
  0
LINE
  8
CONSTRUCTION
 10
14.76953
 11
14.75953
 20
8.499216
 21
8.474216
  0
LINE
  8
CONSTRUCTION
 10
8.101297
 11
8.101297
 20
10.0154
 21
10.101181
  0
LINE
  8
CONSTRUCTION
 10
8.101297
 11
8.101297
 20
10.101181
 21
10.186963
  0
LINE
  8
CONSTRUCTION
 10
8.101297
 11
7.601297
 20
10.101181
 21
10.101181
  0
LINE
  8
CONSTRUCTION
 10
7.601297
 11
7.687079
 20
10.101181
 21
10.0154
  0
ARC
  8
CONSTRUCTION
 10
7.64499
 20
10.442939
 40
0.216644
 50
25.9876
 51
43.9964
  0
ARC
  8
CONSTRUCTION
 10
7.723065
 20
10.518498
 40
0.107994
 50
43.930836
 51
136.072395
  0
ARC
  8
CONSTRUCTION
 10
7.791871
 20
10.471196
 40
0.190856
 50
140.178678
 51
219.819556
  0
ARC
  8
CONSTRUCTION
 10
7.72028
 20
10.412274
 40
0.098139
 50
220.163237
 51
319.839346
  0
ARC
  8
CONSTRUCTION
 10
7.665234
 20
10.458373
 40
0.169939
 50
319.930688
 51
6.210455
  0
ARC
  8
CONSTRUCTION
 10
8.003116
 20
10.495149
 40
0.169939
 50
139.934494
 51
186.213281
  0
ARC
  8
CONSTRUCTION
 10
7.967506
 20
10.534623
 40
0.117506
 50
36.509514
 51
143.490801
  0
ARC
  8
CONSTRUCTION
 10
7.882413
 20
10.471201
 40
0.223633
 50
323.400655
 51
36.598732
  0
ARC
  8
CONSTRUCTION
 10
7.967506
 20
10.407779
 40
0.117506
 50
216.510158
 51
323.489989
  0
ARC
  8
CONSTRUCTION
 10
8.158297
 20
10.55244
 40
0.356933
 50
202.535105
 51
216.952643
  0
CIRCLE
  8
CONSTRUCTION
 10
8.051108
 20
10.797964
 40
0.05
  0
ARC
  8
CONSTRUCTION
 10
7.941401
 20
11.098898
 40
0.155906
 50
298.751948
 51
348.48402
  0
ARC
  8
CONSTRUCTION
 10
7.79846
 20
11.131933
 40
0.302589
 50
347.758312
 51
16.480382
  0
ARC
  8
CONSTRUCTION
 10
7.95196
 20
11.178884
 40
0.142083
 50
15.885172
 51
55.197039
  0
ARC
  8
CONSTRUCTION
 10
7.951052
 20
11.179996
 40
0.141694
 50
54.638795
 51
121.268726
  0
ARC
  8
CONSTRUCTION
 10
7.952681
 20
11.175277
 40
0.146578
 50
120.855291
 51
165.402309
  0
ARC
  8
CONSTRUCTION
 10
8.071219
 20
11.145552
 40
0.268783
 50
165.6389
 51
194.3611
  0
ARC
  8
CONSTRUCTION
 10
7.524602
 20
10.979946
 40
0.30285
 50
19.068075
 51
75.63788
  0
LINE
  8
CONSTRUCTION
 10
7.599724
 11
7.599725
 20
11.273332
 21
10.967774
  0
LINE
  8
CONSTRUCTION
 10
8.101297
 11
8.101297
 20
11.408294
 21
11.494075
  0
LINE
  8
CONSTRUCTION
 10
8.101297
 11
8.101297
 20
11.494075
 21
11.579856
  0
LINE
  8
CONSTRUCTION
 10
8.101297
 11
7.601297
 20
11.494075
 21
11.494075
  0
LINE
  8
CONSTRUCTION
 10
7.601297
 11
7.687079
 20
11.494075
 21
11.408294
  0
LINE
  8
CONSTRUCTION
 10
8.1013
 11
8.101297
 20
12.01319
 21
11.679856
  0
ARC
  8
CONSTRUCTION
 10
8.101062
 20
11.856095
 40
0.176239
 50
211.813563
 51
270.07656
  0
LINE
  8
CONSTRUCTION
 10
7.9513
 11
7.834633
 20
11.76319
 21
11.952077
  0
ARC
  8
CONSTRUCTION
 10
7.729078
 20
11.890594
 40
0.122156
 50
30.220013
 51
149.779436
  0
ARC
  8
CONSTRUCTION
 10
7.799036
 20
11.85763
 40
0.199311
 50
151.713834
 51
208.283685
  0
ARC
  8
CONSTRUCTION
 10
7.728605
 20
11.819112
 40
0.119039
 50
208.0207
 51
259.4717
  0
LINE
  8
CONSTRUCTION
 10
7.623772
 11
7.623772
 20
12.168392
 21
12.143392
  0
LINE
  8
CONSTRUCTION
 10
7.623772
 11
7.598772
 20
12.143392
 21
12.143392
  0
LINE
  8
CONSTRUCTION
 10
7.598772
 11
7.598772
 20
12.143392
 21
12.168392
  0
LINE
  8
CONSTRUCTION
 10
7.598772
 11
7.658772
 20
12.168392
 21
12.168392
  0
LINE
  8
CONSTRUCTION
 10
7.658772
 11
7.693772
 20
12.168392
 21
12.163392
  0
LINE
  8
CONSTRUCTION
 10
7.693772
 11
7.718772
 20
12.163392
 21
12.153392
  0
LINE
  8
CONSTRUCTION
 10
7.624206
 11
7.624206
 20
12.289843
 21
12.264843
  0
LINE
  8
CONSTRUCTION
 10
7.624206
 11
7.599206
 20
12.264843
 21
12.264843
  0
LINE
  8
CONSTRUCTION
 10
7.599206
 11
7.599206
 20
12.264843
 21
12.289843
  0
LINE
  8
CONSTRUCTION
 10
7.599206
 11
7.659206
 20
12.289843
 21
12.289843
  0
LINE
  8
CONSTRUCTION
 10
7.659206
 11
7.694206
 20
12.289843
 21
12.284843
  0
LINE
  8
CONSTRUCTION
 10
7.694206
 11
7.719206
 20
12.284843
 21
12.274843
  0
LINE
  8
CONSTRUCTION
 10
22.543942
 11
22.543942
 20
9.776608
 21
9.862389
  0
LINE
  8
CONSTRUCTION
 10
22.543942
 11
22.543942
 20
9.862389
 21
9.948171
  0
LINE
  8
CONSTRUCTION
 10
22.543942
 11
22.043942
 20
9.862389
 21
9.862389
  0
LINE
  8
CONSTRUCTION
 10
22.043942
 11
22.129723
 20
9.862389
 21
9.776608
  0
ARC
  8
CONSTRUCTION
 10
22.360564
 20
10.221976
 40
0.186567
 50
292.7274
 51
337.2726
  0
ARC
  8
CONSTRUCTION
 10
22.357148
 20
10.224896
 40
0.19085
 50
336.860287
 51
23.140726
  0
ARC
  8
CONSTRUCTION
 10
22.364835
 20
10.228937
 40
0.182194
 50
22.922067
 51
87.893283
  0
ARC
  8
CONSTRUCTION
 10
22.365786
 20
10.246981
 40
0.164128
 50
87.993348
 51
161.191207
  0
ARC
  8
CONSTRUCTION
 10
22.431006
 20
10.224887
 40
0.232989
 50
161.219129
 51
198.775441
  0
ARC
  8
CONSTRUCTION
 10
22.391041
 20
10.210137
 40
0.190406
 50
198.443904
 51
228.941081
  0
LINE
  8
CONSTRUCTION
 10
22.265976
 11
22.043753
 20
10.066565
 21
10.105454
  0
LINE
  8
CONSTRUCTION
 10
22.043753
 11
22.043753
 20
10.105454
 21
10.355454
  0
CIRCLE
  8
CONSTRUCTION
 10
22.493752
 20
10.558531
 40
0.05
  0
ARC
  8
CONSTRUCTION
 10
22.087634
 20
10.865361
 40
0.216644
 50
25.9876
 51
43.9964
  0
ARC
  8
CONSTRUCTION
 10
22.165709
 20
10.940919
 40
0.107994
 50
43.930836
 51
136.072395
  0
ARC
  8
CONSTRUCTION
 10
22.234516
 20
10.893617
 40
0.190856
 50
140.178678
 51
219.819556
  0
ARC
  8
CONSTRUCTION
 10
22.162925
 20
10.834695
 40
0.098139
 50
220.163237
 51
319.839346
  0
ARC
  8
CONSTRUCTION
 10
22.107878
 20
10.880794
 40
0.169939
 50
319.930688
 51
6.210455
  0
ARC
  8
CONSTRUCTION
 10
22.44576
 20
10.917571
 40
0.169939
 50
139.934494
 51
186.213281
  0
ARC
  8
CONSTRUCTION
 10
22.410151
 20
10.957044
 40
0.117506
 50
36.509514
 51
143.490801
  0
ARC
  8
CONSTRUCTION
 10
22.325057
 20
10.893623
 40
0.223633
 50
323.400655
 51
36.598732
  0
ARC
  8
CONSTRUCTION
 10
22.41015
 20
10.830201
 40
0.117506
 50
216.510158
 51
323.489989
  0
ARC
  8
CONSTRUCTION
 10
22.600942
 20
10.974861
 40
0.356933
 50
202.535105
 51
216.952643
  0
LINE
  8
CONSTRUCTION
 10
22.043679
 11
22.043679
 20
11.185007
 21
11.546118
  0
LINE
  8
CONSTRUCTION
 10
22.043679
 11
22.071455
 20
11.546118
 21
11.546114
  0
ARC
  8
CONSTRUCTION
 10
22.526957
 20
11.887057
 40
0.568967
 50
216.8148
 51
271.6842
  0
LINE
  8
CONSTRUCTION
 10
22.377103
 11
22.377103
 20
12.063971
 21
11.647304
  0
LINE
  8
CONSTRUCTION
 10
22.377103
 11
22.349326
 20
11.647304
 21
11.647304
  0
LINE
  8
CONSTRUCTION
 10
22.349326
 11
22.04377
 20
11.647304
 21
11.925082
  0
LINE
  8
CONSTRUCTION
 10
22.04377
 11
22.04377
 20
11.925082
 21
11.95286
  0
LINE
  8
CONSTRUCTION
 10
22.04377
 11
22.54377
 20
11.95286
 21
11.95286
  0
LINE
  8
CONSTRUCTION
 10
22.066416
 11
22.066416
 20
12.204219
 21
12.179219
  0
LINE
  8
CONSTRUCTION
 10
22.066416
 11
22.041416
 20
12.179219
 21
12.179219
  0
LINE
  8
CONSTRUCTION
 10
22.041416
 11
22.041416
 20
12.179219
 21
12.204219
  0
LINE
  8
CONSTRUCTION
 10
22.041416
 11
22.101416
 20
12.204219
 21
12.204219
  0
LINE
  8
CONSTRUCTION
 10
22.101416
 11
22.136416
 20
12.204219
 21
12.199219
  0
LINE
  8
CONSTRUCTION
 10
22.136416
 11
22.161416
 20
12.199219
 21
12.189219
  0
LINE
  8
CONSTRUCTION
 10
22.066851
 11
22.066851
 20
12.325669
 21
12.300669
  0
LINE
  8
CONSTRUCTION
 10
22.066851
 11
22.041851
 20
12.300669
 21
12.300669
  0
LINE
  8
CONSTRUCTION
 10
22.041851
 11
22.041851
 20
12.300669
 21
12.325669
  0
LINE
  8
CONSTRUCTION
 10
22.041851
 11
22.101851
 20
12.325669
 21
12.325669
  0
LINE
  8
CONSTRUCTION
 10
22.101851
 11
22.136851
 20
12.325669
 21
12.320669
  0
LINE
  8
CONSTRUCTION
 10
22.136851
 11
22.161851
 20
12.320669
 21
12.310669
  0
TEXT
  8
TEXT
 10
8.338032
 20
5.776472
 30
0.0
 40
0.5
 50
0.0
  1
Please check template with sink for accuracy
  0
TEXT
  8
TEXT
 10
8.338032
 20
5.026472
 30
0.0
 40
0.5
 50
0.0
  1

  0
TEXT
  8
TEXT
 10
12.890553
 20
12.44635
 30
0.0
 40
1.0
 50
0.0
  1
KARRAN
  0
TEXT
  8
TEXT
 10
12.890553
 20
10.94635
 30
0.0
 40
1.0
 50
0.0
  1

  0
TEXT
  8
TEXT
 10
13.163127
 20
10.521116
 30
0.0
 40
1.0
 50
0.0
  1
QU-610
  0
TEXT
  8
TEXT
 10
13.163127
 20
9.021116
 30
0.0
 40
1.0
 50
0.0
  1

  0
ENDSEC
  0
EOF
