  0
SECTION
  2
ENTITIES
  0
LINE
  8
APS_GEOMETRY
 10
1.367069
 11
5.504612
 20
9.346611
 21
9.346611
  0
LINE
  8
APS_GEOMETRY
 10
7.913365
 11
16.367069
 20
9.346611
 21
9.346611
  0
LINE
  8
APS_GEOMETRY
 10
16.367069
 11
31.367069
 20
9.346611
 21
9.346611
  0
LINE
  8
APS_GEOMETRY
 10
16.367069
 11
16.367069
 20
1.386437
 21
3.615618
  0
LINE
  8
APS_GEOMETRY
 10
16.367069
 11
16.367069
 20
9.346611
 21
12.687866
  0
LINE
  8
APS_GEOMETRY
 10
16.367069
 11
16.367069
 20
15.78233
 21
18.261437
  0
ARC
  8
CONSTRUCTION
 10
6.200249
 20
9.303606
 40
0.155906
 50
208.751948
 51
258.48402
  0
ARC
  8
CONSTRUCTION
 10
6.233283
 20
9.446548
 40
0.302589
 50
257.758312
 51
286.480382
  0
ARC
  8
CONSTRUCTION
 10
6.280234
 20
9.293048
 40
0.142083
 50
285.885172
 51
325.197039
  0
ARC
  8
CONSTRUCTION
 10
6.281347
 20
9.293955
 40
0.141694
 50
324.638795
 51
31.268726
  0
ARC
  8
CONSTRUCTION
 10
6.276627
 20
9.292327
 40
0.146578
 50
30.855291
 51
75.402309
  0
ARC
  8
CONSTRUCTION
 10
6.246902
 20
9.173789
 40
0.268783
 50
75.6389
 51
104.3611
  0
ARC
  8
CONSTRUCTION
 10
6.081297
 20
9.720406
 40
0.30285
 50
289.068075
 51
345.63788
  0
LINE
  8
CONSTRUCTION
 10
6.374682
 11
6.069124
 20
9.645284
 21
9.645283
  0
ARC
  8
CONSTRUCTION
 10
6.707132
 20
9.301312
 40
0.1637
 50
218.6887
 51
321.3113
  0
ARC
  8
CONSTRUCTION
 10
6.598401
 20
9.390654
 40
0.304422
 50
320.978113
 51
39.020738
  0
ARC
  8
CONSTRUCTION
 10
6.707135
 20
9.479993
 40
0.1637
 50
38.688157
 51
141.312908
  0
ARC
  8
CONSTRUCTION
 10
6.815865
 20
9.390651
 40
0.304422
 50
140.978975
 51
219.021025
  0
LINE
  8
CONSTRUCTION
 10
7.056227
 11
7.031227
 20
9.621236
 21
9.621236
  0
LINE
  8
CONSTRUCTION
 10
7.031227
 11
7.031227
 20
9.621236
 21
9.646236
  0
LINE
  8
CONSTRUCTION
 10
7.031227
 11
7.056227
 20
9.646236
 21
9.646236
  0
LINE
  8
CONSTRUCTION
 10
7.056227
 11
7.056227
 20
9.646236
 21
9.586236
  0
LINE
  8
CONSTRUCTION
 10
7.056227
 11
7.051227
 20
9.586236
 21
9.551236
  0
LINE
  8
CONSTRUCTION
 10
7.051227
 11
7.041227
 20
9.551236
 21
9.526236
  0
LINE
  8
CONSTRUCTION
 10
7.177677
 11
7.152677
 20
9.620802
 21
9.620802
  0
LINE
  8
CONSTRUCTION
 10
7.152677
 11
7.152677
 20
9.620802
 21
9.645802
  0
LINE
  8
CONSTRUCTION
 10
7.152677
 11
7.177677
 20
9.645802
 21
9.645802
  0
LINE
  8
CONSTRUCTION
 10
7.177677
 11
7.177677
 20
9.645802
 21
9.585802
  0
LINE
  8
CONSTRUCTION
 10
7.177677
 11
7.172677
 20
9.585802
 21
9.550802
  0
LINE
  8
CONSTRUCTION
 10
7.172677
 11
7.162677
 20
9.550802
 21
9.525802
  0
ARC
  8
CONSTRUCTION
 10
16.070107
 20
1.699701
 40
0.182363
 50
121.026839
 51
130.045456
  0
ARC
  8
CONSTRUCTION
 10
16.014169
 20
1.762639
 40
0.09822
 50
128.687092
 51
231.311843
  0
ARC
  8
CONSTRUCTION
 10
16.067773
 20
1.827879
 40
0.182653
 50
230.979262
 51
309.021887
  0
ARC
  8
CONSTRUCTION
 10
16.12138
 20
1.762642
 40
0.09822
 50
308.687682
 51
51.31267
  0
ARC
  8
CONSTRUCTION
 10
16.075668
 20
1.698577
 40
0.176853
 50
52.7266
 51
65.3459
  0
LINE
  8
CONSTRUCTION
 10
16.11067
 11
16.110671
 20
1.892466
 21
2.036466
  0
ARC
  8
CONSTRUCTION
 10
16.107413
 20
1.947501
 40
0.089025
 50
87.902951
 51
120.171303
  0
ARC
  8
CONSTRUCTION
 10
16.095583
 20
1.967358
 40
0.065913
 50
119.956335
 51
179.906216
  0
ARC
  8
CONSTRUCTION
 10
16.100269
 20
1.967598
 40
0.070599
 50
180.107586
 51
243.41119
  0
ARC
  8
CONSTRUCTION
 10
16.12267
 20
2.012388
 40
0.120678
 50
243.418148
 51
296.580991
  0
ARC
  8
CONSTRUCTION
 10
16.145071
 20
1.967598
 40
0.070599
 50
296.588564
 51
359.892739
  0
ARC
  8
CONSTRUCTION
 10
16.138489
 20
1.967181
 40
0.077181
 50
0.2113
 51
55.0807
  0
LINE
  8
CONSTRUCTION
 10
16.220324
 11
16.082323
 20
2.19547
 21
2.195472
  0
ARC
  8
CONSTRUCTION
 10
16.082056
 20
2.14474
 40
0.050733
 50
89.698802
 51
180.305782
  0
ARC
  8
CONSTRUCTION
 10
16.118588
 20
2.144401
 40
0.087264
 50
179.9552
 51
243.2598
  0
LINE
  8
CONSTRUCTION
 10
16.220324
 11
16.031324
 20
2.06647
 21
2.06647
  0
LINE
  8
CONSTRUCTION
 10
15.950324
 11
16.220324
 20
2.290409
 21
2.290409
  0
LINE
  8
CONSTRUCTION
 10
16.034324
 11
16.034324
 20
2.254409
 21
2.329409
  0
LINE
  8
CONSTRUCTION
 10
16.11067
 11
16.110671
 20
2.361286
 21
2.505286
  0
ARC
  8
CONSTRUCTION
 10
16.107413
 20
2.416321
 40
0.089025
 50
87.902951
 51
120.171303
  0
ARC
  8
CONSTRUCTION
 10
16.095583
 20
2.436178
 40
0.065913
 50
119.956335
 51
179.906216
  0
ARC
  8
CONSTRUCTION
 10
16.100269
 20
2.436418
 40
0.070599
 50
180.107586
 51
243.41119
  0
ARC
  8
CONSTRUCTION
 10
16.12267
 20
2.481208
 40
0.120678
 50
243.418148
 51
296.580991
  0
ARC
  8
CONSTRUCTION
 10
16.145071
 20
2.436418
 40
0.070599
 50
296.588564
 51
359.892739
  0
ARC
  8
CONSTRUCTION
 10
16.138489
 20
2.436001
 40
0.077181
 50
0.2113
 51
55.0807
  0
ARC
  8
CONSTRUCTION
 10
16.109798
 20
2.651357
 40
0.078477
 50
179.6195
 51
260.8532
  0
LINE
  8
CONSTRUCTION
 10
16.031324
 11
16.220324
 20
2.573879
 21
2.573879
  0
LINE
  8
CONSTRUCTION
 10
16.220324
 11
16.220324
 20
2.53529
 21
2.612468
  0
LINE
  8
CONSTRUCTION
 10
16.220324
 11
15.950324
 20
2.729198
 21
2.729198
  0
LINE
  8
CONSTRUCTION
 10
15.950324
 11
15.950324
 20
2.729198
 21
2.707157
  0
LINE
  8
CONSTRUCTION
 10
16.220324
 11
16.220324
 20
2.681878
 21
2.729198
  0
LINE
  8
CONSTRUCTION
 10
16.220324
 11
16.220324
 20
2.729198
 21
2.776518
  0
LINE
  8
CONSTRUCTION
 10
15.947324
 11
15.971324
 20
2.875107
 21
2.875107
  0
LINE
  8
CONSTRUCTION
 10
16.220324
 11
16.031324
 20
2.875107
 21
2.875107
  0
LINE
  8
CONSTRUCTION
 10
16.220324
 11
16.220324
 20
2.836518
 21
2.913696
  0
LINE
  8
CONSTRUCTION
 10
16.220324
 11
16.082323
 20
3.102696
 21
3.102698
  0
ARC
  8
CONSTRUCTION
 10
16.082056
 20
3.051966
 40
0.050733
 50
89.698802
 51
180.305782
  0
ARC
  8
CONSTRUCTION
 10
16.118588
 20
3.051627
 40
0.087264
 50
179.9552
 51
243.2598
  0
LINE
  8
CONSTRUCTION
 10
16.220324
 11
16.031324
 20
2.973696
 21
2.973696
  0
LINE
  8
CONSTRUCTION
 10
16.11067
 11
16.110671
 20
3.133512
 21
3.277512
  0
ARC
  8
CONSTRUCTION
 10
16.107413
 20
3.188547
 40
0.089025
 50
87.902951
 51
120.171303
  0
ARC
  8
CONSTRUCTION
 10
16.095583
 20
3.208404
 40
0.065913
 50
119.956335
 51
179.906216
  0
ARC
  8
CONSTRUCTION
 10
16.100269
 20
3.208644
 40
0.070599
 50
180.107586
 51
243.41119
  0
ARC
  8
CONSTRUCTION
 10
16.12267
 20
3.253433
 40
0.120678
 50
243.418148
 51
296.580991
  0
ARC
  8
CONSTRUCTION
 10
16.145071
 20
3.208644
 40
0.070599
 50
296.588564
 51
359.892739
  0
ARC
  8
CONSTRUCTION
 10
16.138489
 20
3.208227
 40
0.077181
 50
0.2113
 51
55.0807
  0
LINE
  8
APS_GEOMETRY
 10
1.472819
 11
2.870152
 20
16.937678
 21
15.540346
  0
LINE
  8
APS_GEOMETRY
 10
31.261016
 11
29.863712
 20
16.938016
 21
15.540712
  0
LINE
  8
APS_GEOMETRY
 10
1.513515
 11
3.000952
 20
1.532883
 21
3.02032
  0
LINE
  8
APS_GEOMETRY
 10
31.220622
 11
29.733185
 20
1.532883
 21
3.02032
  0
LINE
  8
CONSTRUCTION
 10
2.852204
 11
2.950236
 20
14.800901
 21
14.905468
  0
ARC
  8
CONSTRUCTION
 10
2.894305
 20
14.957903
 40
0.076667
 50
316.84761
 51
136.84761
  0
LINE
  8
CONSTRUCTION
 10
2.838373
 11
2.740342
 20
15.010339
 21
14.905772
  0
LINE
  8
CONSTRUCTION
 10
2.740342
 11
2.959203
 20
14.905772
 21
14.70059
  0
LINE
  8
CONSTRUCTION
 10
2.943396
 11
3.095991
 20
14.898173
 21
14.846497
  0
LINE
  8
CONSTRUCTION
 10
28.919827
 11
29.025885
 20
15.712845
 21
15.616429
  0
ARC
  8
CONSTRUCTION
 10
29.077456
 20
15.673158
 40
0.076667
 50
227.726311
 51
47.726311
  0
LINE
  8
CONSTRUCTION
 10
29.129028
 11
29.02297
 20
15.729886
 21
15.826303
  0
LINE
  8
CONSTRUCTION
 10
29.02297
 11
28.821168
 20
15.826303
 21
15.604321
  0
LINE
  8
CONSTRUCTION
 10
29.018485
 11
28.969156
 20
15.623156
 21
15.469786
  0
LINE
  8
CONSTRUCTION
 10
28.996858
 11
29.09489
 20
2.861496
 21
2.966063
  0
ARC
  8
CONSTRUCTION
 10
29.038959
 20
3.018499
 40
0.076667
 50
316.84761
 51
136.84761
  0
LINE
  8
CONSTRUCTION
 10
28.983028
 11
28.884996
 20
3.070934
 21
2.966367
  0
LINE
  8
CONSTRUCTION
 10
28.884996
 11
29.103857
 20
2.966367
 21
2.761185
  0
LINE
  8
CONSTRUCTION
 10
29.088051
 11
29.240645
 20
2.958768
 21
2.907092
  0
LINE
  8
CONSTRUCTION
 10
2.91022
 11
3.016278
 20
3.811627
 21
3.71521
  0
ARC
  8
CONSTRUCTION
 10
3.067849
 20
3.771939
 40
0.076667
 50
227.726311
 51
47.726311
  0
LINE
  8
CONSTRUCTION
 10
3.119421
 11
3.013363
 20
3.828668
 21
3.925084
  0
LINE
  8
CONSTRUCTION
 10
3.013363
 11
2.811561
 20
3.925084
 21
3.703102
  0
LINE
  8
CONSTRUCTION
 10
3.008878
 11
2.959549
 20
3.721937
 21
3.568568
  0
LINE
  8
APS_GEOMETRY
 10
16.367069
 11
16.367069
 20
9.346611
 21
3.615618
  0
LINE
  8
CONSTRUCTION
 10
3.297613
 11
3.335298
 20
15.0189
 21
15.053956
  0
LINE
  8
CONSTRUCTION
 10
3.335298
 11
3.372983
 20
15.053956
 21
15.089011
  0
LINE
  8
CONSTRUCTION
 10
3.335298
 11
3.130967
 20
15.053956
 21
15.273612
  0
LINE
  8
CONSTRUCTION
 10
3.130967
 11
3.128338
 20
15.273612
 21
15.200871
  0
LINE
  8
CONSTRUCTION
 10
3.422219
 11
3.370114
 20
15.131365
 21
15.451654
  0
LINE
  8
CONSTRUCTION
 10
3.739077
 11
3.592639
 20
15.429562
 21
15.293343
  0
ARC
  8
CONSTRUCTION
 10
3.669966
 20
15.365468
 40
0.105743
 50
164.743532
 51
223.00653
  0
LINE
  8
CONSTRUCTION
 10
3.56795
 11
3.603253
 20
15.393294
 21
15.521738
  0
ARC
  8
CONSTRUCTION
 10
3.533106
 20
15.542983
 40
0.073293
 50
343.149983
 51
102.709405
  0
ARC
  8
CONSTRUCTION
 10
3.547214
 20
15.498779
 40
0.119587
 50
104.643803
 51
161.213654
  0
ARC
  8
CONSTRUCTION
 10
3.50151
 20
15.513979
 40
0.071423
 50
160.950669
 51
212.401669
  0
LINE
  8
CONSTRUCTION
 10
3.612112
 11
3.601129
 20
15.702771
 21
15.692555
  0
LINE
  8
CONSTRUCTION
 10
3.601129
 11
3.590912
 20
15.692555
 21
15.703538
  0
LINE
  8
CONSTRUCTION
 10
3.590912
 11
3.601895
 20
15.703538
 21
15.713754
  0
LINE
  8
CONSTRUCTION
 10
3.601895
 11
3.626415
 20
15.713754
 21
15.687395
  0
LINE
  8
CONSTRUCTION
 10
3.626415
 11
3.638522
 20
15.687395
 21
15.669976
  0
LINE
  8
CONSTRUCTION
 10
3.638522
 11
3.644345
 20
15.669976
 21
15.654907
  0
LINE
  8
CONSTRUCTION
 10
3.665644
 11
3.654661
 20
15.752213
 21
15.741996
  0
LINE
  8
CONSTRUCTION
 10
3.654661
 11
3.644445
 20
15.741996
 21
15.752979
  0
LINE
  8
CONSTRUCTION
 10
3.644445
 11
3.655427
 20
15.752979
 21
15.763196
  0
LINE
  8
CONSTRUCTION
 10
3.655427
 11
3.679947
 20
15.763196
 21
15.736837
  0
LINE
  8
CONSTRUCTION
 10
3.679947
 11
3.692054
 20
15.736837
 21
15.719418
  0
LINE
  8
CONSTRUCTION
 10
3.692054
 11
3.697877
 20
15.719418
 21
15.704348
  0
LINE
  8
CONSTRUCTION
 10
29.422085
 11
29.459769
 20
3.035793
 21
3.070849
  0
LINE
  8
CONSTRUCTION
 10
29.459769
 11
29.497454
 20
3.070849
 21
3.105904
  0
LINE
  8
CONSTRUCTION
 10
29.459769
 11
29.255438
 20
3.070849
 21
3.290505
  0
LINE
  8
CONSTRUCTION
 10
29.255438
 11
29.252809
 20
3.290505
 21
3.217764
  0
LINE
  8
CONSTRUCTION
 10
29.54669
 11
29.494585
 20
3.148258
 21
3.468547
  0
LINE
  8
CONSTRUCTION
 10
29.863548
 11
29.71711
 20
3.446455
 21
3.310235
  0
ARC
  8
CONSTRUCTION
 10
29.794438
 20
3.382361
 40
0.105743
 50
164.743532
 51
223.00653
  0
LINE
  8
CONSTRUCTION
 10
29.692421
 11
29.727724
 20
3.410186
 21
3.538631
  0
ARC
  8
CONSTRUCTION
 10
29.657578
 20
3.559876
 40
0.073293
 50
343.149983
 51
102.709405
  0
ARC
  8
CONSTRUCTION
 10
29.671685
 20
3.515672
 40
0.119587
 50
104.643803
 51
161.213654
  0
ARC
  8
CONSTRUCTION
 10
29.625981
 20
3.530872
 40
0.071423
 50
160.950669
 51
212.401669
  0
LINE
  8
CONSTRUCTION
 10
29.736583
 11
29.7256
 20
3.719664
 21
3.709448
  0
LINE
  8
CONSTRUCTION
 10
29.7256
 11
29.715384
 20
3.709448
 21
3.72043
  0
LINE
  8
CONSTRUCTION
 10
29.715384
 11
29.726366
 20
3.72043
 21
3.730647
  0
LINE
  8
CONSTRUCTION
 10
29.726366
 11
29.750886
 20
3.730647
 21
3.704288
  0
LINE
  8
CONSTRUCTION
 10
29.750886
 11
29.762993
 20
3.704288
 21
3.686869
  0
LINE
  8
CONSTRUCTION
 10
29.762993
 11
29.768816
 20
3.686869
 21
3.6718
  0
LINE
  8
CONSTRUCTION
 10
29.790115
 11
29.779132
 20
3.769106
 21
3.758889
  0
LINE
  8
CONSTRUCTION
 10
29.779132
 11
29.768916
 20
3.758889
 21
3.769872
  0
LINE
  8
CONSTRUCTION
 10
29.768916
 11
29.779899
 20
3.769872
 21
3.780088
  0
LINE
  8
CONSTRUCTION
 10
29.779899
 11
29.804418
 20
3.780088
 21
3.75373
  0
LINE
  8
CONSTRUCTION
 10
29.804418
 11
29.816525
 20
3.75373
 21
3.73631
  0
LINE
  8
CONSTRUCTION
 10
29.816525
 11
29.822348
 20
3.73631
 21
3.721241
  0
LINE
  8
CONSTRUCTION
 10
29.159357
 11
29.194413
 20
15.297314
 21
15.259629
  0
LINE
  8
CONSTRUCTION
 10
29.194413
 11
29.229468
 20
15.259629
 21
15.221944
  0
LINE
  8
CONSTRUCTION
 10
29.194413
 11
29.414069
 20
15.259629
 21
15.46396
  0
LINE
  8
CONSTRUCTION
 10
29.414069
 11
29.341328
 20
15.46396
 21
15.466589
  0
LINE
  8
CONSTRUCTION
 10
29.271822
 11
29.592111
 20
15.172708
 21
15.224813
  0
LINE
  8
CONSTRUCTION
 10
29.570019
 11
29.4338
 20
14.85585
 21
15.002288
  0
ARC
  8
CONSTRUCTION
 10
29.505925
 20
14.924961
 40
0.105743
 50
74.743532
 51
133.00653
  0
LINE
  8
CONSTRUCTION
 10
29.533751
 11
29.662195
 20
15.026977
 21
14.991674
  0
ARC
  8
CONSTRUCTION
 10
29.68344
 20
15.061821
 40
0.073293
 50
253.149983
 51
12.709405
  0
ARC
  8
CONSTRUCTION
 10
29.639236
 20
15.047713
 40
0.119587
 50
14.643803
 51
71.213654
  0
ARC
  8
CONSTRUCTION
 10
29.654436
 20
15.093417
 40
0.071423
 50
70.950669
 51
122.401669
  0
LINE
  8
CONSTRUCTION
 10
29.843228
 11
29.833012
 20
14.982815
 21
14.993798
  0
LINE
  8
CONSTRUCTION
 10
29.833012
 11
29.843995
 20
14.993798
 21
15.004015
  0
LINE
  8
CONSTRUCTION
 10
29.843995
 11
29.854211
 20
15.004015
 21
14.993032
  0
LINE
  8
CONSTRUCTION
 10
29.854211
 11
29.827852
 20
14.993032
 21
14.968512
  0
LINE
  8
CONSTRUCTION
 10
29.827852
 11
29.810433
 20
14.968512
 21
14.956406
  0
LINE
  8
CONSTRUCTION
 10
29.810433
 11
29.795364
 20
14.956406
 21
14.950582
  0
LINE
  8
CONSTRUCTION
 10
29.89267
 11
29.882453
 20
14.929283
 21
14.940266
  0
LINE
  8
CONSTRUCTION
 10
29.882453
 11
29.893436
 20
14.940266
 21
14.950482
  0
LINE
  8
CONSTRUCTION
 10
29.893436
 11
29.903653
 20
14.950482
 21
14.9395
  0
LINE
  8
CONSTRUCTION
 10
29.903653
 11
29.877294
 20
14.9395
 21
14.91498
  0
LINE
  8
CONSTRUCTION
 10
29.877294
 11
29.859875
 20
14.91498
 21
14.902873
  0
LINE
  8
CONSTRUCTION
 10
29.859875
 11
29.844805
 20
14.902873
 21
14.89705
  0
LINE
  8
CONSTRUCTION
 10
3.112755
 11
3.147811
 20
3.386433
 21
3.348749
  0
LINE
  8
CONSTRUCTION
 10
3.147811
 11
3.182866
 20
3.348749
 21
3.311064
  0
LINE
  8
CONSTRUCTION
 10
3.147811
 11
3.367467
 20
3.348749
 21
3.55308
  0
LINE
  8
CONSTRUCTION
 10
3.367467
 11
3.294726
 20
3.55308
 21
3.555709
  0
LINE
  8
CONSTRUCTION
 10
3.22522
 11
3.545509
 20
3.261828
 21
3.313932
  0
LINE
  8
CONSTRUCTION
 10
3.523417
 11
3.387197
 20
2.94497
 21
3.091408
  0
ARC
  8
CONSTRUCTION
 10
3.459323
 20
3.01408
 40
0.105743
 50
74.743532
 51
133.00653
  0
LINE
  8
CONSTRUCTION
 10
3.487148
 11
3.615593
 20
3.116097
 21
3.080794
  0
ARC
  8
CONSTRUCTION
 10
3.636838
 20
3.15094
 40
0.073293
 50
253.149983
 51
12.709405
  0
ARC
  8
CONSTRUCTION
 10
3.592634
 20
3.136833
 40
0.119587
 50
14.643803
 51
71.213654
  0
ARC
  8
CONSTRUCTION
 10
3.607834
 20
3.182536
 40
0.071423
 50
70.950669
 51
122.401669
  0
LINE
  8
CONSTRUCTION
 10
3.796626
 11
3.78641
 20
3.071935
 21
3.082918
  0
LINE
  8
CONSTRUCTION
 10
3.78641
 11
3.797392
 20
3.082918
 21
3.093134
  0
LINE
  8
CONSTRUCTION
 10
3.797392
 11
3.807609
 20
3.093134
 21
3.082151
  0
LINE
  8
CONSTRUCTION
 10
3.807609
 11
3.78125
 20
3.082151
 21
3.057632
  0
LINE
  8
CONSTRUCTION
 10
3.78125
 11
3.763831
 20
3.057632
 21
3.045525
  0
LINE
  8
CONSTRUCTION
 10
3.763831
 11
3.748762
 20
3.045525
 21
3.039702
  0
LINE
  8
CONSTRUCTION
 10
3.846068
 11
3.835851
 20
3.018403
 21
3.029385
  0
LINE
  8
CONSTRUCTION
 10
3.835851
 11
3.846834
 20
3.029385
 21
3.039602
  0
LINE
  8
CONSTRUCTION
 10
3.846834
 11
3.85705
 20
3.039602
 21
3.028619
  0
LINE
  8
CONSTRUCTION
 10
3.85705
 11
3.830692
 20
3.028619
 21
3.004099
  0
LINE
  8
CONSTRUCTION
 10
3.830692
 11
3.813272
 20
3.004099
 21
2.991993
  0
LINE
  8
CONSTRUCTION
 10
3.813272
 11
3.798203
 20
2.991993
 21
2.986169
  0
LINE
  8
CONSTRUCTION
 10
16.633606
 11
16.633606
 20
13.050234
 21
13.136016
  0
LINE
  8
CONSTRUCTION
 10
16.633606
 11
16.633606
 20
13.136016
 21
13.221797
  0
LINE
  8
CONSTRUCTION
 10
16.633606
 11
16.133606
 20
13.136016
 21
13.136016
  0
LINE
  8
CONSTRUCTION
 10
16.133606
 11
16.219387
 20
13.136016
 21
13.050234
  0
ARC
  8
CONSTRUCTION
 10
16.296545
 20
13.522683
 40
0.1637
 50
128.687092
 51
231.311843
  0
ARC
  8
CONSTRUCTION
 10
16.385884
 20
13.631417
 40
0.304422
 50
230.979262
 51
309.021887
  0
ARC
  8
CONSTRUCTION
 10
16.475228
 20
13.522687
 40
0.1637
 50
308.688216
 51
51.311676
  0
ARC
  8
CONSTRUCTION
 10
16.49422
 20
13.547637
 40
0.132356
 50
50.977916
 51
129.022283
  0
ARC
  8
CONSTRUCTION
 10
16.519886
 20
13.514351
 40
0.174378
 50
128.687897
 51
231.311964
  0
ARC
  8
CONSTRUCTION
 10
16.512093
 20
13.502614
 40
0.16035
 50
230.8638
 51
259.5859
  0
CIRCLE
  8
CONSTRUCTION
 10
16.583417
 20
13.823941
 40
0.05
  0
ARC
  8
CONSTRUCTION
 10
16.177299
 20
14.130771
 40
0.216644
 50
25.9876
 51
43.9964
  0
ARC
  8
CONSTRUCTION
 10
16.255374
 20
14.20633
 40
0.107994
 50
43.930836
 51
136.072395
  0
ARC
  8
CONSTRUCTION
 10
16.32418
 20
14.159028
 40
0.190856
 50
140.178678
 51
219.819556
  0
ARC
  8
CONSTRUCTION
 10
16.252589
 20
14.100106
 40
0.098139
 50
220.163237
 51
319.839346
  0
ARC
  8
CONSTRUCTION
 10
16.197542
 20
14.146205
 40
0.169939
 50
319.930688
 51
6.210455
  0
ARC
  8
CONSTRUCTION
 10
16.535425
 20
14.182981
 40
0.169939
 50
139.934494
 51
186.213281
  0
ARC
  8
CONSTRUCTION
 10
16.499815
 20
14.222455
 40
0.117506
 50
36.509514
 51
143.490801
  0
ARC
  8
CONSTRUCTION
 10
16.414722
 20
14.159034
 40
0.223633
 50
323.400655
 51
36.598732
  0
ARC
  8
CONSTRUCTION
 10
16.499815
 20
14.095611
 40
0.117506
 50
216.510158
 51
323.489989
  0
ARC
  8
CONSTRUCTION
 10
16.690606
 20
14.240272
 40
0.356933
 50
202.535105
 51
216.952643
  0
LINE
  8
CONSTRUCTION
 10
16.133343
 11
16.133343
 20
14.450417
 21
14.811528
  0
LINE
  8
CONSTRUCTION
 10
16.133343
 11
16.16112
 20
14.811528
 21
14.811525
  0
ARC
  8
CONSTRUCTION
 10
16.616621
 20
15.152467
 40
0.568967
 50
216.8148
 51
271.6842
  0
ARC
  8
CONSTRUCTION
 10
16.450228
 20
15.071566
 40
0.186567
 50
292.7274
 51
337.2726
  0
ARC
  8
CONSTRUCTION
 10
16.446813
 20
15.074486
 40
0.19085
 50
336.860287
 51
23.140726
  0
ARC
  8
CONSTRUCTION
 10
16.4545
 20
15.078527
 40
0.182194
 50
22.922067
 51
87.893283
  0
ARC
  8
CONSTRUCTION
 10
16.45545
 20
15.096571
 40
0.164128
 50
87.993348
 51
161.191207
  0
ARC
  8
CONSTRUCTION
 10
16.520671
 20
15.074477
 40
0.232989
 50
161.219129
 51
198.775441
  0
ARC
  8
CONSTRUCTION
 10
16.480705
 20
15.059727
 40
0.190406
 50
198.443904
 51
228.941081
  0
LINE
  8
CONSTRUCTION
 10
16.35564
 11
16.133417
 20
14.916155
 21
14.955044
  0
LINE
  8
CONSTRUCTION
 10
16.133417
 11
16.133417
 20
14.955044
 21
15.205044
  0
LINE
  8
CONSTRUCTION
 10
16.156081
 11
16.156081
 20
15.414176
 21
15.389176
  0
LINE
  8
CONSTRUCTION
 10
16.156081
 11
16.131081
 20
15.389176
 21
15.389176
  0
LINE
  8
CONSTRUCTION
 10
16.131081
 11
16.131081
 20
15.389176
 21
15.414176
  0
LINE
  8
CONSTRUCTION
 10
16.131081
 11
16.191081
 20
15.414176
 21
15.414176
  0
LINE
  8
CONSTRUCTION
 10
16.191081
 11
16.226081
 20
15.414176
 21
15.409176
  0
LINE
  8
CONSTRUCTION
 10
16.226081
 11
16.251081
 20
15.409176
 21
15.399176
  0
LINE
  8
CONSTRUCTION
 10
16.156515
 11
16.156515
 20
15.535627
 21
15.510627
  0
LINE
  8
CONSTRUCTION
 10
16.156515
 11
16.131515
 20
15.510627
 21
15.510627
  0
LINE
  8
CONSTRUCTION
 10
16.131515
 11
16.131515
 20
15.510627
 21
15.535627
  0
LINE
  8
CONSTRUCTION
 10
16.131515
 11
16.191515
 20
15.535627
 21
15.535627
  0
LINE
  8
CONSTRUCTION
 10
16.191515
 11
16.226515
 20
15.535627
 21
15.530627
  0
LINE
  8
CONSTRUCTION
 10
16.226515
 11
16.251515
 20
15.530627
 21
15.520627
  0
LINE
  8
APS_GEOMETRY
 10
30.867069
 11
1.867069
 20
1.386437
 21
1.386437
  0
ARC
  8
APS_GEOMETRY
 10
1.867069
 20
1.886437
 40
0.5
 50
180.0
 51
270.0
  0
LINE
  8
APS_GEOMETRY
 10
1.367069
 11
1.367069
 20
1.886437
 21
16.630161
  0
ARC
  8
APS_GEOMETRY
 10
1.867069
 20
16.630161
 40
0.5
 50
104.090989
 51
180.0
  0
LINE
  8
APS_GEOMETRY
 10
1.745337
 11
1.941736
 20
17.115116
 21
17.164415
  0
LINE
  8
APS_GEOMETRY
 10
1.941736
 11
2.168007
 20
17.164415
 21
17.218652
  0
LINE
  8
APS_GEOMETRY
 10
2.168007
 11
2.398663
 20
17.218652
 21
17.271432
  0
LINE
  8
APS_GEOMETRY
 10
2.398663
 11
2.633707
 20
17.271432
 21
17.322757
  0
LINE
  8
APS_GEOMETRY
 10
2.633707
 11
2.87314
 20
17.322757
 21
17.372626
  0
LINE
  8
APS_GEOMETRY
 10
2.87314
 11
3.116841
 20
17.372626
 21
17.421018
  0
LINE
  8
APS_GEOMETRY
 10
3.116841
 11
3.300021
 20
17.421018
 21
17.455897
  0
LINE
  8
APS_GEOMETRY
 10
3.300021
 11
3.48523
 20
17.455897
 21
17.489913
  0
LINE
  8
APS_GEOMETRY
 10
3.48523
 11
3.533141
 20
17.489913
 21
17.498514
  0
LINE
  8
APS_GEOMETRY
 10
3.533141
 11
3.576776
 20
17.498514
 21
17.506278
  0
LINE
  8
APS_GEOMETRY
 10
3.576776
 11
3.620542
 20
17.506278
 21
17.513999
  0
LINE
  8
APS_GEOMETRY
 10
3.620542
 11
3.664446
 20
17.513999
 21
17.521678
  0
LINE
  8
APS_GEOMETRY
 10
3.664446
 11
3.708489
 20
17.521678
 21
17.529315
  0
LINE
  8
APS_GEOMETRY
 10
3.708489
 11
3.752993
 20
17.529315
 21
17.536966
  0
LINE
  8
APS_GEOMETRY
 10
3.752993
 11
3.991704
 20
17.536966
 21
17.576892
  0
LINE
  8
APS_GEOMETRY
 10
3.991704
 11
4.234661
 20
17.576892
 21
17.615669
  0
LINE
  8
APS_GEOMETRY
 10
4.234661
 11
4.444028
 20
17.615669
 21
17.647649
  0
LINE
  8
APS_GEOMETRY
 10
4.444028
 11
4.656198
 20
17.647649
 21
17.678761
  0
LINE
  8
APS_GEOMETRY
 10
4.656198
 11
4.871323
 20
17.678761
 21
17.709026
  0
LINE
  8
APS_GEOMETRY
 10
4.871323
 11
5.159146
 20
17.709026
 21
17.747588
  0
LINE
  8
APS_GEOMETRY
 10
5.159146
 11
5.216657
 20
17.747588
 21
17.755038
  0
LINE
  8
APS_GEOMETRY
 10
5.216657
 11
5.274051
 20
17.755038
 21
17.76239
  0
LINE
  8
APS_GEOMETRY
 10
5.274051
 11
5.331632
 20
17.76239
 21
17.769683
  0
LINE
  8
APS_GEOMETRY
 10
5.331632
 11
5.385426
 20
17.769683
 21
17.776423
  0
LINE
  8
APS_GEOMETRY
 10
5.385426
 11
5.670513
 20
17.776423
 21
17.810977
  0
LINE
  8
APS_GEOMETRY
 10
5.670513
 11
5.960435
 20
17.810977
 21
17.844175
  0
LINE
  8
APS_GEOMETRY
 10
5.960435
 11
6.254752
 20
17.844175
 21
17.875965
  0
LINE
  8
APS_GEOMETRY
 10
6.254752
 11
6.417434
 20
17.875965
 21
17.892744
  0
LINE
  8
APS_GEOMETRY
 10
6.417434
 11
6.581318
 20
17.892744
 21
17.909093
  0
LINE
  8
APS_GEOMETRY
 10
6.581318
 11
6.746552
 20
17.909093
 21
17.925029
  0
LINE
  8
APS_GEOMETRY
 10
6.746552
 11
6.913139
 20
17.925029
 21
17.940551
  0
LINE
  8
APS_GEOMETRY
 10
6.913139
 11
7.081071
 20
17.940551
 21
17.955658
  0
LINE
  8
APS_GEOMETRY
 10
7.081071
 11
7.243798
 20
17.955658
 21
17.969794
  0
LINE
  8
APS_GEOMETRY
 10
7.243798
 11
7.399592
 20
17.969794
 21
17.98288
  0
LINE
  8
APS_GEOMETRY
 10
7.399592
 11
7.688415
 20
17.98288
 21
18.006025
  0
LINE
  8
APS_GEOMETRY
 10
7.688415
 11
7.981962
 20
18.006025
 21
18.028123
  0
LINE
  8
APS_GEOMETRY
 10
7.981962
 11
8.280074
 20
18.028123
 21
18.04916
  0
LINE
  8
APS_GEOMETRY
 10
8.280074
 11
8.534117
 20
18.04916
 21
18.06602
  0
LINE
  8
APS_GEOMETRY
 10
8.534117
 11
8.791202
 20
18.06602
 21
18.08212
  0
LINE
  8
APS_GEOMETRY
 10
8.791202
 11
8.823941
 20
18.08212
 21
18.084103
  0
LINE
  8
APS_GEOMETRY
 10
8.823941
 11
8.856562
 20
18.084103
 21
18.086064
  0
LINE
  8
APS_GEOMETRY
 10
8.856562
 11
8.889235
 20
18.086064
 21
18.088013
  0
LINE
  8
APS_GEOMETRY
 10
8.889235
 11
8.921959
 20
18.088013
 21
18.089951
  0
LINE
  8
APS_GEOMETRY
 10
8.921959
 11
8.954735
 20
18.089951
 21
18.091876
  0
LINE
  8
APS_GEOMETRY
 10
8.954735
 11
8.987561
 20
18.091876
 21
18.09379
  0
LINE
  8
APS_GEOMETRY
 10
8.987561
 11
9.019389
 20
18.09379
 21
18.095631
  0
LINE
  8
APS_GEOMETRY
 10
9.019389
 11
9.17637
 20
18.095631
 21
18.104509
  0
LINE
  8
APS_GEOMETRY
 10
9.17637
 11
9.391265
 20
18.104509
 21
18.116123
  0
LINE
  8
APS_GEOMETRY
 10
9.391265
 11
9.609075
 20
18.116123
 21
18.127281
  0
LINE
  8
APS_GEOMETRY
 10
9.609075
 11
9.829793
 20
18.127281
 21
18.137984
  0
LINE
  8
APS_GEOMETRY
 10
9.829793
 11
10.107325
 20
18.137984
 21
18.150613
  0
LINE
  8
APS_GEOMETRY
 10
10.107325
 11
10.389309
 20
18.150613
 21
18.162541
  0
LINE
  8
APS_GEOMETRY
 10
10.389309
 11
10.675711
 20
18.162541
 21
18.173765
  0
LINE
  8
APS_GEOMETRY
 10
10.675711
 11
10.966531
 20
18.173765
 21
18.184287
  0
LINE
  8
APS_GEOMETRY
 10
10.966531
 11
11.26177
 20
18.184287
 21
18.194107
  0
LINE
  8
APS_GEOMETRY
 10
11.26177
 11
11.561429
 20
18.194107
 21
18.203224
  0
LINE
  8
APS_GEOMETRY
 10
11.561429
 11
11.865488
 20
18.203224
 21
18.211637
  0
LINE
  8
APS_GEOMETRY
 10
11.865488
 11
12.131293
 20
18.211637
 21
18.21833
  0
LINE
  8
APS_GEOMETRY
 10
12.131293
 11
12.400353
 20
18.21833
 21
18.2245
  0
LINE
  8
APS_GEOMETRY
 10
12.400353
 11
12.639791
 20
18.2245
 21
18.229496
  0
LINE
  8
APS_GEOMETRY
 10
12.639791
 11
12.687214
 20
18.229496
 21
18.230432
  0
LINE
  8
APS_GEOMETRY
 10
12.687214
 11
12.728174
 20
18.230432
 21
18.231226
  0
LINE
  8
APS_GEOMETRY
 10
12.728174
 11
12.76898
 20
18.231226
 21
18.232004
  0
LINE
  8
APS_GEOMETRY
 10
12.76898
 11
12.80998
 20
18.232004
 21
18.232774
  0
LINE
  8
APS_GEOMETRY
 10
12.80998
 11
13.033507
 20
18.232774
 21
18.23675
  0
LINE
  8
APS_GEOMETRY
 10
13.033507
 11
13.260694
 20
18.23675
 21
18.240427
  0
LINE
  8
APS_GEOMETRY
 10
13.260694
 11
13.491465
 20
18.240427
 21
18.243802
  0
LINE
  8
APS_GEOMETRY
 10
13.491465
 11
13.715099
 20
18.243802
 21
18.246742
  0
LINE
  8
APS_GEOMETRY
 10
13.715099
 11
13.941999
 20
18.246742
 21
18.249408
  0
LINE
  8
APS_GEOMETRY
 10
13.941999
 11
14.172168
 20
18.249408
 21
18.2518
  0
LINE
  8
APS_GEOMETRY
 10
14.172168
 11
14.405561
 20
18.2518
 21
18.253916
  0
LINE
  8
APS_GEOMETRY
 10
14.405561
 11
14.488552
 20
18.253916
 21
18.254596
  0
LINE
  8
APS_GEOMETRY
 10
14.488552
 11
14.565962
 20
18.254596
 21
18.255197
  0
LINE
  8
APS_GEOMETRY
 10
14.565962
 11
14.638499
 20
18.255197
 21
18.25573
  0
LINE
  8
APS_GEOMETRY
 10
14.638499
 11
14.711602
 20
18.25573
 21
18.25624
  0
LINE
  8
APS_GEOMETRY
 10
14.711602
 11
14.785292
 20
18.25624
 21
18.256727
  0
LINE
  8
APS_GEOMETRY
 10
14.785292
 11
14.931637
 20
18.256727
 21
18.257612
  0
LINE
  8
APS_GEOMETRY
 10
14.931637
 11
15.080205
 20
18.257612
 21
18.258405
  0
LINE
  8
APS_GEOMETRY
 10
15.080205
 11
15.284646
 20
18.258405
 21
18.259331
  0
LINE
  8
APS_GEOMETRY
 10
15.284646
 11
15.49311
 20
18.259331
 21
18.260089
  0
LINE
  8
APS_GEOMETRY
 10
15.49311
 11
15.705584
 20
18.260089
 21
18.260679
  0
LINE
  8
APS_GEOMETRY
 10
15.705584
 11
15.922068
 20
18.260679
 21
18.2611
  0
LINE
  8
APS_GEOMETRY
 10
15.922068
 11
16.142563
 20
18.2611
 21
18.261353
  0
LINE
  8
APS_GEOMETRY
 10
16.142563
 11
16.367168
 20
18.261353
 21
18.261437
  0
LINE
  8
APS_GEOMETRY
 10
16.367168
 11
17.135952
 20
18.261437
 21
18.260425
  0
LINE
  8
APS_GEOMETRY
 10
17.135952
 11
17.90487
 20
18.260425
 21
18.257029
  0
LINE
  8
APS_GEOMETRY
 10
17.90487
 11
18.673827
 20
18.257029
 21
18.250706
  0
LINE
  8
APS_GEOMETRY
 10
18.673827
 11
19.442802
 20
18.250706
 21
18.240913
  0
LINE
  8
APS_GEOMETRY
 10
19.442802
 11
20.211782
 20
18.240913
 21
18.227106
  0
LINE
  8
APS_GEOMETRY
 10
20.211782
 11
20.980609
 20
18.227106
 21
18.208676
  0
LINE
  8
APS_GEOMETRY
 10
20.980609
 11
21.498548
 20
18.208676
 21
18.193328
  0
LINE
  8
APS_GEOMETRY
 10
21.498548
 11
22.016329
 20
18.193328
 21
18.175402
  0
LINE
  8
APS_GEOMETRY
 10
22.016329
 11
22.53405
 20
18.175402
 21
18.154692
  0
LINE
  8
APS_GEOMETRY
 10
22.53405
 11
23.051686
 20
18.154692
 21
18.130939
  0
LINE
  8
APS_GEOMETRY
 10
23.051686
 11
23.569198
 20
18.130939
 21
18.103878
  0
LINE
  8
APS_GEOMETRY
 10
23.569198
 11
24.086555
 20
18.103878
 21
18.073251
  0
LINE
  8
APS_GEOMETRY
 10
24.086555
 11
24.603637
 20
18.073251
 21
18.038796
  0
LINE
  8
APS_GEOMETRY
 10
24.603637
 11
25.009028
 20
18.038796
 21
18.008878
  0
LINE
  8
APS_GEOMETRY
 10
25.009028
 11
25.414153
 20
18.008878
 21
17.97625
  0
LINE
  8
APS_GEOMETRY
 10
25.414153
 11
25.819075
 20
17.97625
 21
17.940733
  0
LINE
  8
APS_GEOMETRY
 10
25.819075
 11
26.223751
 20
17.940733
 21
17.902104
  0
LINE
  8
APS_GEOMETRY
 10
26.223751
 11
26.628123
 20
17.902104
 21
17.860157
  0
LINE
  8
APS_GEOMETRY
 10
26.628123
 11
27.024956
 20
17.860157
 21
17.815526
  0
LINE
  8
APS_GEOMETRY
 10
27.024956
 11
27.421409
 20
17.815526
 21
17.7673
  0
LINE
  8
APS_GEOMETRY
 10
27.421409
 11
27.817452
 20
17.7673
 21
17.715271
  0
LINE
  8
APS_GEOMETRY
 10
27.817452
 11
28.212891
 20
17.715271
 21
17.659164
  0
LINE
  8
APS_GEOMETRY
 10
28.212891
 11
28.529036
 20
17.659164
 21
17.611088
  0
LINE
  8
APS_GEOMETRY
 10
28.529036
 11
28.844639
 20
17.611088
 21
17.560045
  0
LINE
  8
APS_GEOMETRY
 10
28.844639
 11
29.15976
 20
17.560045
 21
17.505856
  0
LINE
  8
APS_GEOMETRY
 10
29.15976
 11
29.474359
 20
17.505856
 21
17.448346
  0
LINE
  8
APS_GEOMETRY
 10
29.474359
 11
29.788353
 20
17.448346
 21
17.387303
  0
LINE
  8
APS_GEOMETRY
 10
29.788353
 11
30.096093
 20
17.387303
 21
17.323696
  0
LINE
  8
APS_GEOMETRY
 10
30.096093
 11
30.403072
 20
17.323696
 21
17.256242
  0
LINE
  8
APS_GEOMETRY
 10
30.403072
 11
30.709185
 20
17.256242
 21
17.184669
  0
LINE
  8
APS_GEOMETRY
 10
30.709185
 11
30.987846
 20
17.184669
 21
17.115304
  0
ARC
  8
APS_GEOMETRY
 10
30.867069
 20
16.63011
 40
0.5
 50
0.0
 51
76.021749
  0
LINE
  8
APS_GEOMETRY
 10
31.367069
 11
31.367069
 20
16.63011
 21
1.886437
  0
ARC
  8
APS_GEOMETRY
 10
30.867069
 20
1.886437
 40
0.5
 50
270.0
 51
0.0
  0
TEXT
  8
TEXT
 10
6.406729
 20
13.99972
 30
0.0
 40
1.0
 50
0.0
  1
KARRAN
  0
TEXT
  8
TEXT
 10
6.406729
 20
12.49972
 30
0.0
 40
1.0
 50
0.0
  1

  0
TEXT
  8
TEXT
 10
9.6676
 20
6.036403
 30
0.0
 40
0.5
 50
0.0
  1
Please check template with sink for accuracy
  0
TEXT
  8
TEXT
 10
9.6676
 20
5.286403
 30
0.0
 40
0.5
 50
0.0
  1

  0
TEXT
  8
TEXT
 10
6.920231
 20
12.480486
 30
0.0
 40
1.0
 50
0.0
  1
QU-711
  0
TEXT
  8
TEXT
 10
6.920231
 20
10.980486
 30
0.0
 40
1.0
 50
0.0
  1

  0
ENDSEC
  0
EOF
