  0
SECTION
  2
ENTITIES
  0
ARC
  8
APS_GEOMETRY
 10
0.390424
 20
19.974734
 40
0.470642
 50
90.0
 51
180.0
  0
LINE
  8
APS_GEOMETRY
 10
-0.080218
 11
-0.080218
 20
19.974734
 21
1.98607
  0
ARC
  8
APS_GEOMETRY
 10
0.390424
 20
1.986071
 40
0.470643
 50
180.000053
 51
270.0
  0
LINE
  8
APS_GEOMETRY
 10
0.390424
 11
29.379066
 20
1.515428
 21
1.515428
  0
ARC
  8
APS_GEOMETRY
 10
29.379066
 20
1.98607
 40
0.470642
 50
269.999996
 51
0.000004
  0
LINE
  8
APS_GEOMETRY
 10
29.849708
 11
29.849708
 20
1.98607
 21
17.781431
  0
ARC
  8
APS_GEOMETRY
 10
29.379066
 20
17.781431
 40
0.470642
 50
359.999986
 51
90.000014
  0
LINE
  8
APS_GEOMETRY
 10
29.379066
 11
17.506202
 20
18.252073
 21
18.252073
  0
ARC
  8
APS_GEOMETRY
 10
17.506203
 20
18.722715
 40
0.470642
 50
180.0
 51
269.999982
  0
LINE
  8
APS_GEOMETRY
 10
17.03556
 11
17.03556
 20
18.722715
 21
19.974734
  0
ARC
  8
APS_GEOMETRY
 10
16.564918
 20
19.974734
 40
0.470642
 50
359.999999
 51
90.000004
  0
LINE
  8
APS_GEOMETRY
 10
16.564918
 11
0.390424
 20
20.445376
 21
20.445376
  0
LINE
  8
APS_GEOMETRY
 10
-0.080218
 11
3.846313
 20
10.980402
 21
10.980402
  0
LINE
  8
APS_GEOMETRY
 10
7.818099
 11
29.849708
 20
10.980402
 21
10.980402
  0
LINE
  8
APS_GEOMETRY
 10
14.884745
 11
14.884745
 20
20.445376
 21
16.843252
  0
LINE
  8
APS_GEOMETRY
 10
14.884745
 11
14.884745
 20
13.278905
 21
1.515428
  0
ARC
  8
CONSTRUCTION
 10
14.661965
 20
1.7105
 40
0.182363
 50
121.026839
 51
130.045456
  0
ARC
  8
CONSTRUCTION
 10
14.606027
 20
1.773437
 40
0.09822
 50
128.687092
 51
231.311843
  0
ARC
  8
CONSTRUCTION
 10
14.65963
 20
1.838677
 40
0.182653
 50
230.979262
 51
309.021887
  0
ARC
  8
CONSTRUCTION
 10
14.713237
 20
1.77344
 40
0.09822
 50
308.687682
 51
51.31267
  0
ARC
  8
CONSTRUCTION
 10
14.667526
 20
1.709376
 40
0.176853
 50
52.7266
 51
65.3459
  0
LINE
  8
CONSTRUCTION
 10
14.702528
 11
14.702528
 20
1.903265
 21
2.047265
  0
ARC
  8
CONSTRUCTION
 10
14.699271
 20
1.958299
 40
0.089025
 50
87.902951
 51
120.171303
  0
ARC
  8
CONSTRUCTION
 10
14.687441
 20
1.978157
 40
0.065913
 50
119.956335
 51
179.906216
  0
ARC
  8
CONSTRUCTION
 10
14.692127
 20
1.978397
 40
0.070599
 50
180.107586
 51
243.41119
  0
ARC
  8
CONSTRUCTION
 10
14.714528
 20
2.023186
 40
0.120678
 50
243.418148
 51
296.580991
  0
ARC
  8
CONSTRUCTION
 10
14.736928
 20
1.978396
 40
0.070599
 50
296.588564
 51
359.892739
  0
ARC
  8
CONSTRUCTION
 10
14.730347
 20
1.97798
 40
0.077181
 50
0.2113
 51
55.0807
  0
LINE
  8
CONSTRUCTION
 10
14.812181
 11
14.67418
 20
2.206269
 21
2.206271
  0
ARC
  8
CONSTRUCTION
 10
14.673914
 20
2.155539
 40
0.050733
 50
89.698802
 51
180.305782
  0
ARC
  8
CONSTRUCTION
 10
14.710445
 20
2.1552
 40
0.087264
 50
179.9552
 51
243.2598
  0
LINE
  8
CONSTRUCTION
 10
14.812181
 11
14.623181
 20
2.077269
 21
2.077269
  0
LINE
  8
CONSTRUCTION
 10
14.542181
 11
14.812181
 20
2.301208
 21
2.301208
  0
LINE
  8
CONSTRUCTION
 10
14.626181
 11
14.626181
 20
2.265208
 21
2.340208
  0
LINE
  8
CONSTRUCTION
 10
14.702528
 11
14.702528
 20
2.372084
 21
2.516085
  0
ARC
  8
CONSTRUCTION
 10
14.699271
 20
2.427119
 40
0.089025
 50
87.902951
 51
120.171303
  0
ARC
  8
CONSTRUCTION
 10
14.687441
 20
2.446976
 40
0.065913
 50
119.956335
 51
179.906216
  0
ARC
  8
CONSTRUCTION
 10
14.692127
 20
2.447217
 40
0.070599
 50
180.107586
 51
243.41119
  0
ARC
  8
CONSTRUCTION
 10
14.714528
 20
2.492006
 40
0.120678
 50
243.418148
 51
296.580991
  0
ARC
  8
CONSTRUCTION
 10
14.736928
 20
2.447216
 40
0.070599
 50
296.588564
 51
359.892739
  0
ARC
  8
CONSTRUCTION
 10
14.730347
 20
2.446799
 40
0.077181
 50
0.2113
 51
55.0807
  0
ARC
  8
CONSTRUCTION
 10
14.701655
 20
2.662156
 40
0.078477
 50
179.6195
 51
260.8532
  0
LINE
  8
CONSTRUCTION
 10
14.623181
 11
14.812181
 20
2.584678
 21
2.584678
  0
LINE
  8
CONSTRUCTION
 10
14.812181
 11
14.812181
 20
2.546089
 21
2.623267
  0
LINE
  8
CONSTRUCTION
 10
14.812181
 11
14.542181
 20
2.739997
 21
2.739997
  0
LINE
  8
CONSTRUCTION
 10
14.542181
 11
14.542181
 20
2.739997
 21
2.717956
  0
LINE
  8
CONSTRUCTION
 10
14.812181
 11
14.812181
 20
2.692677
 21
2.739997
  0
LINE
  8
CONSTRUCTION
 10
14.812181
 11
14.812181
 20
2.739997
 21
2.787316
  0
LINE
  8
CONSTRUCTION
 10
14.539181
 11
14.563181
 20
2.885905
 21
2.885905
  0
LINE
  8
CONSTRUCTION
 10
14.812181
 11
14.623181
 20
2.885905
 21
2.885905
  0
LINE
  8
CONSTRUCTION
 10
14.812181
 11
14.812181
 20
2.847316
 21
2.924495
  0
LINE
  8
CONSTRUCTION
 10
14.812181
 11
14.67418
 20
3.113495
 21
3.113497
  0
ARC
  8
CONSTRUCTION
 10
14.673914
 20
3.062765
 40
0.050733
 50
89.698802
 51
180.305782
  0
ARC
  8
CONSTRUCTION
 10
14.710445
 20
3.062426
 40
0.087264
 50
179.9552
 51
243.2598
  0
LINE
  8
CONSTRUCTION
 10
14.812181
 11
14.623181
 20
2.984495
 21
2.984495
  0
LINE
  8
CONSTRUCTION
 10
14.702528
 11
14.702528
 20
3.14431
 21
3.288311
  0
ARC
  8
CONSTRUCTION
 10
14.699271
 20
3.199345
 40
0.089025
 50
87.902951
 51
120.171303
  0
ARC
  8
CONSTRUCTION
 10
14.687441
 20
3.219202
 40
0.065913
 50
119.956335
 51
179.906216
  0
ARC
  8
CONSTRUCTION
 10
14.692127
 20
3.219443
 40
0.070599
 50
180.107586
 51
243.41119
  0
ARC
  8
CONSTRUCTION
 10
14.714528
 20
3.264232
 40
0.120678
 50
243.418148
 51
296.580991
  0
ARC
  8
CONSTRUCTION
 10
14.736928
 20
3.219442
 40
0.070599
 50
296.588564
 51
359.892739
  0
ARC
  8
CONSTRUCTION
 10
14.730347
 20
3.219025
 40
0.077181
 50
0.2113
 51
55.0807
  0
LINE
  8
APS_GEOMETRY
 10
0.05763
 11
1.471843
 20
20.307528
 21
18.893315
  0
LINE
  8
APS_GEOMETRY
 10
29.71186
 11
28.297647
 20
18.114225
 21
16.700012
  0
LINE
  8
APS_GEOMETRY
 10
29.71186
 11
28.297647
 20
1.653276
 21
3.06749
  0
LINE
  8
APS_GEOMETRY
 10
0.05763
 11
1.471843
 20
1.653276
 21
3.06749
  0
LINE
  8
CONSTRUCTION
 10
1.419861
 11
1.519203
 20
18.412538
 21
18.515861
  0
ARC
  8
CONSTRUCTION
 10
1.463937
 20
18.568997
 40
0.076667
 50
316.125629
 51
136.125629
  0
LINE
  8
CONSTRUCTION
 10
1.408671
 11
1.309329
 20
18.622133
 21
18.51881
  0
LINE
  8
CONSTRUCTION
 10
1.309329
 11
1.525588
 20
18.51881
 21
18.310886
  0
LINE
  8
CONSTRUCTION
 10
1.512272
 11
1.664204
 20
18.508652
 21
18.455058
  0
LINE
  8
CONSTRUCTION
 10
27.831529
 11
27.930871
 20
3.008723
 21
3.112046
  0
ARC
  8
CONSTRUCTION
 10
27.875605
 20
3.165182
 40
0.076667
 50
316.125629
 51
136.125629
  0
LINE
  8
CONSTRUCTION
 10
27.820339
 11
27.720997
 20
3.218318
 21
3.114995
  0
LINE
  8
CONSTRUCTION
 10
27.720997
 11
27.937255
 20
3.114995
 21
2.907071
  0
LINE
  8
CONSTRUCTION
 10
27.92394
 11
28.075871
 20
3.104837
 21
3.051243
  0
LINE
  8
CONSTRUCTION
 10
27.856292
 11
27.954392
 20
16.821962
 21
16.71746
  0
ARC
  8
CONSTRUCTION
 10
28.010289
 20
16.769932
 40
0.076667
 50
223.189956
 51
43.189956
  0
LINE
  8
CONSTRUCTION
 10
28.066185
 11
27.968085
 20
16.822404
 21
16.926907
  0
LINE
  8
CONSTRUCTION
 10
27.968085
 11
27.749359
 20
16.926907
 21
16.721581
  0
LINE
  8
CONSTRUCTION
 10
27.947548
 11
27.886243
 20
16.724751
 21
16.575763
  0
LINE
  8
CONSTRUCTION
 10
1.385091
 11
1.483191
 20
3.604354
 21
3.499852
  0
ARC
  8
CONSTRUCTION
 10
1.539088
 20
3.552324
 40
0.076667
 50
223.189956
 51
43.189956
  0
LINE
  8
CONSTRUCTION
 10
1.594985
 11
1.496885
 20
3.604796
 21
3.709299
  0
LINE
  8
CONSTRUCTION
 10
1.496885
 11
1.278158
 20
3.709299
 21
3.503973
  0
LINE
  8
CONSTRUCTION
 10
1.476347
 11
1.415042
 20
3.507142
 21
3.358155
  0
LINE
  8
APS_GEOMETRY
 10
23.443066
 11
23.443066
 20
18.252073
 21
16.844876
  0
LINE
  8
APS_GEOMETRY
 10
23.443066
 11
23.443066
 20
13.262127
 21
1.515428
  0
CIRCLE
  8
CONSTRUCTION
 10
1.787868
 20
18.620586
 40
0.03
  0
LINE
  8
CONSTRUCTION
 10
1.985502
 11
1.808725
 20
18.917199
 21
18.740422
  0
LINE
  8
CONSTRUCTION
 10
1.808725
 11
1.79694
 20
18.740422
 21
18.752207
  0
LINE
  8
CONSTRUCTION
 10
1.79694
 11
1.785155
 20
18.752207
 21
18.999694
  0
LINE
  8
CONSTRUCTION
 10
1.785155
 11
1.79694
 20
18.999694
 21
19.01148
  0
LINE
  8
CONSTRUCTION
 10
1.79694
 11
2.009072
 20
19.01148
 21
18.799347
  0
LINE
  8
CONSTRUCTION
 10
1.885965
 11
2.039171
 20
19.100582
 21
19.253788
  0
LINE
  8
CONSTRUCTION
 10
2.039171
 11
2.050954
 20
19.253788
 21
19.242002
  0
ARC
  8
CONSTRUCTION
 10
2.388857
 20
19.193399
 40
0.34138
 50
171.8148
 51
226.6842
  0
LINE
  8
CONSTRUCTION
 10
2.108823
 11
2.098216
 20
19.304147
 21
19.29354
  0
LINE
  8
CONSTRUCTION
 10
2.098216
 11
2.08761
 20
19.29354
 21
19.304147
  0
LINE
  8
CONSTRUCTION
 10
2.08761
 11
2.098216
 20
19.304147
 21
19.314754
  0
LINE
  8
CONSTRUCTION
 10
2.098216
 11
2.123672
 20
19.314754
 21
19.289298
  0
LINE
  8
CONSTRUCTION
 10
2.123672
 11
2.1364
 20
19.289298
 21
19.272327
  0
LINE
  8
CONSTRUCTION
 10
2.1364
 11
2.142764
 20
19.272327
 21
19.257478
  0
LINE
  8
CONSTRUCTION
 10
2.160535
 11
2.149928
 20
19.35549
 21
19.344883
  0
LINE
  8
CONSTRUCTION
 10
2.149928
 11
2.139321
 20
19.344883
 21
19.35549
  0
LINE
  8
CONSTRUCTION
 10
2.139321
 11
2.149928
 20
19.35549
 21
19.366096
  0
LINE
  8
CONSTRUCTION
 10
2.149928
 11
2.175384
 20
19.366096
 21
19.340641
  0
LINE
  8
CONSTRUCTION
 10
2.175384
 11
2.188112
 20
19.340641
 21
19.32367
  0
LINE
  8
CONSTRUCTION
 10
2.188112
 11
2.194476
 20
19.32367
 21
19.308821
  0
CIRCLE
  8
CONSTRUCTION
 10
28.18235
 20
3.171124
 40
0.03
  0
LINE
  8
CONSTRUCTION
 10
28.379983
 11
28.203206
 20
3.467737
 21
3.29096
  0
LINE
  8
CONSTRUCTION
 10
28.203206
 11
28.191421
 20
3.29096
 21
3.302745
  0
LINE
  8
CONSTRUCTION
 10
28.191421
 11
28.179636
 20
3.302745
 21
3.550233
  0
LINE
  8
CONSTRUCTION
 10
28.179636
 11
28.191421
 20
3.550233
 21
3.562018
  0
LINE
  8
CONSTRUCTION
 10
28.191421
 11
28.403553
 20
3.562018
 21
3.349886
  0
LINE
  8
CONSTRUCTION
 10
28.280446
 11
28.433652
 20
3.65112
 21
3.804326
  0
LINE
  8
CONSTRUCTION
 10
28.433652
 11
28.445436
 20
3.804326
 21
3.792541
  0
ARC
  8
CONSTRUCTION
 10
28.783338
 20
3.743937
 40
0.34138
 50
171.8148
 51
226.6842
  0
LINE
  8
CONSTRUCTION
 10
28.503304
 11
28.492698
 20
3.854685
 21
3.844079
  0
LINE
  8
CONSTRUCTION
 10
28.492698
 11
28.482091
 20
3.844079
 21
3.854685
  0
LINE
  8
CONSTRUCTION
 10
28.482091
 11
28.492698
 20
3.854685
 21
3.865292
  0
LINE
  8
CONSTRUCTION
 10
28.492698
 11
28.518154
 20
3.865292
 21
3.839836
  0
LINE
  8
CONSTRUCTION
 10
28.518154
 11
28.530882
 20
3.839836
 21
3.822865
  0
LINE
  8
CONSTRUCTION
 10
28.530882
 11
28.537245
 20
3.822865
 21
3.808016
  0
LINE
  8
CONSTRUCTION
 10
28.555016
 11
28.544409
 20
3.906028
 21
3.895422
  0
LINE
  8
CONSTRUCTION
 10
28.544409
 11
28.533803
 20
3.895422
 21
3.906028
  0
LINE
  8
CONSTRUCTION
 10
28.533803
 11
28.544409
 20
3.906028
 21
3.916635
  0
LINE
  8
CONSTRUCTION
 10
28.544409
 11
28.569865
 20
3.916635
 21
3.891179
  0
LINE
  8
CONSTRUCTION
 10
28.569865
 11
28.582593
 20
3.891179
 21
3.874208
  0
LINE
  8
CONSTRUCTION
 10
28.582593
 11
28.588957
 20
3.874208
 21
3.859359
  0
CIRCLE
  8
CONSTRUCTION
 10
28.076397
 20
16.440246
 40
0.03
  0
LINE
  8
CONSTRUCTION
 10
28.364525
 11
28.195261
 20
16.230436
 21
16.414419
  0
LINE
  8
CONSTRUCTION
 10
28.195261
 11
28.207526
 20
16.414419
 21
16.425703
  0
LINE
  8
CONSTRUCTION
 10
28.207526
 11
28.45529
 20
16.425703
 21
16.427175
  0
LINE
  8
CONSTRUCTION
 10
28.45529
 11
28.466574
 20
16.427175
 21
16.41491
  0
LINE
  8
CONSTRUCTION
 10
28.466574
 11
28.245795
 20
16.41491
 21
16.211793
  0
LINE
  8
CONSTRUCTION
 10
28.551893
 11
28.698588
 20
16.322253
 21
16.162801
  0
LINE
  8
CONSTRUCTION
 10
28.698588
 11
28.686322
 20
16.162801
 21
16.151519
  0
ARC
  8
CONSTRUCTION
 10
28.623694
 20
15.815933
 40
0.34138
 50
79.428856
 51
134.298256
  0
LINE
  8
CONSTRUCTION
 10
28.746004
 11
28.735848
 20
16.091113
 21
16.102152
  0
LINE
  8
CONSTRUCTION
 10
28.735848
 11
28.746887
 20
16.102152
 21
16.112308
  0
LINE
  8
CONSTRUCTION
 10
28.746887
 11
28.757043
 20
16.112308
 21
16.101269
  0
LINE
  8
CONSTRUCTION
 10
28.757043
 11
28.730549
 20
16.101269
 21
16.076895
  0
LINE
  8
CONSTRUCTION
 10
28.730549
 11
28.713064
 20
16.076895
 21
16.064884
  0
LINE
  8
CONSTRUCTION
 10
28.713064
 11
28.697962
 20
16.064884
 21
16.059144
  0
LINE
  8
CONSTRUCTION
 10
28.795149
 11
28.784994
 20
16.037309
 21
16.048348
  0
LINE
  8
CONSTRUCTION
 10
28.784994
 11
28.796032
 20
16.048348
 21
16.058504
  0
LINE
  8
CONSTRUCTION
 10
28.796032
 11
28.806188
 20
16.058504
 21
16.047465
  0
LINE
  8
CONSTRUCTION
 10
28.806188
 11
28.779695
 20
16.047465
 21
16.023091
  0
LINE
  8
CONSTRUCTION
 10
28.779695
 11
28.762209
 20
16.023091
 21
16.01108
  0
LINE
  8
CONSTRUCTION
 10
28.762209
 11
28.747108
 20
16.01108
 21
16.00534
  0
CIRCLE
  8
CONSTRUCTION
 10
1.589257
 20
3.173516
 40
0.03
  0
LINE
  8
CONSTRUCTION
 10
1.877385
 11
1.708121
 20
2.963706
 21
3.147689
  0
LINE
  8
CONSTRUCTION
 10
1.708121
 11
1.720387
 20
3.147689
 21
3.158973
  0
LINE
  8
CONSTRUCTION
 10
1.720387
 11
1.96815
 20
3.158973
 21
3.160445
  0
LINE
  8
CONSTRUCTION
 10
1.96815
 11
1.979434
 20
3.160445
 21
3.14818
  0
LINE
  8
CONSTRUCTION
 10
1.979434
 11
1.758655
 20
3.14818
 21
2.945063
  0
LINE
  8
CONSTRUCTION
 10
2.064753
 11
2.211449
 20
3.055523
 21
2.896071
  0
LINE
  8
CONSTRUCTION
 10
2.211449
 11
2.199182
 20
2.896071
 21
2.884789
  0
ARC
  8
CONSTRUCTION
 10
2.136554
 20
2.549203
 40
0.34138
 50
79.428856
 51
134.298256
  0
LINE
  8
CONSTRUCTION
 10
2.258864
 11
2.248708
 20
2.824383
 21
2.835422
  0
LINE
  8
CONSTRUCTION
 10
2.248708
 11
2.259747
 20
2.835422
 21
2.845578
  0
LINE
  8
CONSTRUCTION
 10
2.259747
 11
2.269903
 20
2.845578
 21
2.834539
  0
LINE
  8
CONSTRUCTION
 10
2.269903
 11
2.24341
 20
2.834539
 21
2.810165
  0
LINE
  8
CONSTRUCTION
 10
2.24341
 11
2.225924
 20
2.810165
 21
2.798154
  0
LINE
  8
CONSTRUCTION
 10
2.225924
 11
2.210823
 20
2.798154
 21
2.792414
  0
LINE
  8
CONSTRUCTION
 10
2.30801
 11
2.297854
 20
2.770579
 21
2.781618
  0
LINE
  8
CONSTRUCTION
 10
2.297854
 11
2.308893
 20
2.781618
 21
2.791774
  0
LINE
  8
CONSTRUCTION
 10
2.308893
 11
2.319049
 20
2.791774
 21
2.780735
  0
LINE
  8
CONSTRUCTION
 10
2.319049
 11
2.292555
 20
2.780735
 21
2.756361
  0
LINE
  8
CONSTRUCTION
 10
2.292555
 11
2.275069
 20
2.756361
 21
2.74435
  0
LINE
  8
CONSTRUCTION
 10
2.275069
 11
2.259968
 20
2.74435
 21
2.73861
  0
LINE
  8
CONSTRUCTION
 10
4.920537
 11
4.587204
 20
10.758048
 21
10.75805
  0
ARC
  8
CONSTRUCTION
 10
4.763443
 20
10.758286
 40
0.176239
 50
121.813563
 51
180.07656
  0
LINE
  8
CONSTRUCTION
 10
4.670537
 11
4.859425
 20
10.908048
 21
11.024715
  0
ARC
  8
CONSTRUCTION
 10
4.797941
 20
11.130269
 40
0.122156
 50
300.220013
 51
59.779436
  0
ARC
  8
CONSTRUCTION
 10
4.764977
 20
11.060312
 40
0.199311
 50
61.713834
 51
118.283685
  0
ARC
  8
CONSTRUCTION
 10
4.72646
 20
11.130743
 40
0.119039
 50
118.0207
 51
169.4717
  0
ARC
  8
CONSTRUCTION
 10
5.179424
 20
10.91555
 40
0.1637
 50
218.687092
 51
321.311843
  0
ARC
  8
CONSTRUCTION
 10
5.070691
 20
11.004888
 40
0.304422
 50
320.979262
 51
39.021887
  0
ARC
  8
CONSTRUCTION
 10
5.179421
 20
11.094232
 40
0.1637
 50
38.688216
 51
141.311676
  0
ARC
  8
CONSTRUCTION
 10
5.154471
 20
11.113224
 40
0.132356
 50
140.977916
 51
219.022283
  0
ARC
  8
CONSTRUCTION
 10
5.187756
 20
11.13889
 40
0.174378
 50
218.687897
 51
321.311964
  0
ARC
  8
CONSTRUCTION
 10
5.199494
 20
11.131098
 40
0.16035
 50
320.8638
 51
349.5859
  0
CIRCLE
  8
CONSTRUCTION
 10
5.522682
 20
10.80824
 40
0.05
  0
ARC
  8
CONSTRUCTION
 10
5.832422
 20
10.91555
 40
0.1637
 50
218.687092
 51
321.311843
  0
ARC
  8
CONSTRUCTION
 10
5.723689
 20
11.004888
 40
0.304422
 50
320.979262
 51
39.021887
  0
ARC
  8
CONSTRUCTION
 10
5.832418
 20
11.094232
 40
0.1637
 50
38.688216
 51
141.311676
  0
ARC
  8
CONSTRUCTION
 10
5.807469
 20
11.113224
 40
0.132356
 50
140.977916
 51
219.022283
  0
ARC
  8
CONSTRUCTION
 10
5.840754
 20
11.13889
 40
0.174378
 50
218.687897
 51
321.311964
  0
ARC
  8
CONSTRUCTION
 10
5.852492
 20
11.131098
 40
0.16035
 50
320.8638
 51
349.5859
  0
LINE
  8
CONSTRUCTION
 10
6.459866
 11
6.126533
 20
10.758048
 21
10.75805
  0
ARC
  8
CONSTRUCTION
 10
6.302772
 20
10.758286
 40
0.176239
 50
121.813563
 51
180.07656
  0
LINE
  8
CONSTRUCTION
 10
6.209866
 11
6.398754
 20
10.908048
 21
11.024715
  0
ARC
  8
CONSTRUCTION
 10
6.33727
 20
11.130269
 40
0.122156
 50
300.220013
 51
59.779436
  0
ARC
  8
CONSTRUCTION
 10
6.304306
 20
11.060312
 40
0.199311
 50
61.713834
 51
118.283685
  0
ARC
  8
CONSTRUCTION
 10
6.265789
 20
11.130743
 40
0.119039
 50
118.0207
 51
169.4717
  0
ARC
  8
CONSTRUCTION
 10
6.718753
 20
10.91555
 40
0.1637
 50
218.687092
 51
321.311843
  0
ARC
  8
CONSTRUCTION
 10
6.61002
 20
11.004888
 40
0.304422
 50
320.979262
 51
39.021887
  0
ARC
  8
CONSTRUCTION
 10
6.71875
 20
11.094232
 40
0.1637
 50
38.688216
 51
141.311676
  0
ARC
  8
CONSTRUCTION
 10
6.6938
 20
11.113224
 40
0.132356
 50
140.977916
 51
219.022283
  0
ARC
  8
CONSTRUCTION
 10
6.727085
 20
11.13889
 40
0.174378
 50
218.687897
 51
321.311964
  0
ARC
  8
CONSTRUCTION
 10
6.738823
 20
11.131098
 40
0.16035
 50
320.8638
 51
349.5859
  0
LINE
  8
CONSTRUCTION
 10
7.068067
 11
7.043067
 20
11.235576
 21
11.235576
  0
LINE
  8
CONSTRUCTION
 10
7.043067
 11
7.043067
 20
11.235576
 21
11.260576
  0
LINE
  8
CONSTRUCTION
 10
7.043067
 11
7.068067
 20
11.260576
 21
11.260576
  0
LINE
  8
CONSTRUCTION
 10
7.068067
 11
7.068067
 20
11.260576
 21
11.200576
  0
LINE
  8
CONSTRUCTION
 10
7.068067
 11
7.063067
 20
11.200576
 21
11.165576
  0
LINE
  8
CONSTRUCTION
 10
7.063067
 11
7.053067
 20
11.165576
 21
11.140576
  0
LINE
  8
CONSTRUCTION
 10
7.189517
 11
7.164517
 20
11.235141
 21
11.235141
  0
LINE
  8
CONSTRUCTION
 10
7.164517
 11
7.164517
 20
11.235141
 21
11.260141
  0
LINE
  8
CONSTRUCTION
 10
7.164517
 11
7.189517
 20
11.260141
 21
11.260141
  0
LINE
  8
CONSTRUCTION
 10
7.189517
 11
7.189517
 20
11.260141
 21
11.200141
  0
LINE
  8
CONSTRUCTION
 10
7.189517
 11
7.184517
 20
11.200141
 21
11.165141
  0
LINE
  8
CONSTRUCTION
 10
7.184517
 11
7.174517
 20
11.165141
 21
11.140141
  0
LINE
  8
CONSTRUCTION
 10
15.141438
 11
15.141438
 20
13.830444
 21
13.916225
  0
LINE
  8
CONSTRUCTION
 10
15.141438
 11
15.141438
 20
13.916225
 21
14.002006
  0
LINE
  8
CONSTRUCTION
 10
15.141438
 11
14.641438
 20
13.916225
 21
13.916225
  0
LINE
  8
CONSTRUCTION
 10
14.641438
 11
14.727219
 20
13.916225
 21
13.830444
  0
ARC
  8
CONSTRUCTION
 10
14.685131
 20
14.257983
 40
0.216644
 50
25.9876
 51
43.9964
  0
ARC
  8
CONSTRUCTION
 10
14.763206
 20
14.333541
 40
0.107994
 50
43.930836
 51
136.072395
  0
ARC
  8
CONSTRUCTION
 10
14.832012
 20
14.286239
 40
0.190856
 50
140.178678
 51
219.819556
  0
ARC
  8
CONSTRUCTION
 10
14.760421
 20
14.227317
 40
0.098139
 50
220.163237
 51
319.839346
  0
ARC
  8
CONSTRUCTION
 10
14.705374
 20
14.273416
 40
0.169939
 50
319.930688
 51
6.210455
  0
ARC
  8
CONSTRUCTION
 10
15.043257
 20
14.310193
 40
0.169939
 50
139.934494
 51
186.213281
  0
ARC
  8
CONSTRUCTION
 10
15.007647
 20
14.349666
 40
0.117506
 50
36.509514
 51
143.490801
  0
ARC
  8
CONSTRUCTION
 10
14.922554
 20
14.286245
 40
0.223633
 50
323.400655
 51
36.598732
  0
ARC
  8
CONSTRUCTION
 10
15.007646
 20
14.222823
 40
0.117506
 50
216.510158
 51
323.489989
  0
ARC
  8
CONSTRUCTION
 10
15.198438
 20
14.367483
 40
0.356933
 50
202.535105
 51
216.952643
  0
CIRCLE
  8
CONSTRUCTION
 10
15.091249
 20
14.613007
 40
0.05
  0
ARC
  8
CONSTRUCTION
 10
14.983939
 20
14.922748
 40
0.1637
 50
308.687092
 51
51.311843
  0
ARC
  8
CONSTRUCTION
 10
14.8946
 20
14.814014
 40
0.304422
 50
50.979262
 51
129.021887
  0
ARC
  8
CONSTRUCTION
 10
14.805257
 20
14.922744
 40
0.1637
 50
128.688216
 51
231.311676
  0
ARC
  8
CONSTRUCTION
 10
14.786264
 20
14.897794
 40
0.132356
 50
230.977916
 51
309.022283
  0
ARC
  8
CONSTRUCTION
 10
14.760598
 20
14.931079
 40
0.174378
 50
308.687897
 51
51.311964
  0
ARC
  8
CONSTRUCTION
 10
14.768391
 20
14.942817
 40
0.16035
 50
50.8638
 51
79.5859
  0
LINE
  8
CONSTRUCTION
 10
15.14144
 11
15.141438
 20
15.550192
 21
15.216859
  0
ARC
  8
CONSTRUCTION
 10
15.141203
 20
15.393097
 40
0.176239
 50
211.813563
 51
270.07656
  0
LINE
  8
CONSTRUCTION
 10
14.99144
 11
14.874774
 20
15.300192
 21
15.489079
  0
ARC
  8
CONSTRUCTION
 10
14.769219
 20
15.427596
 40
0.122156
 50
30.220013
 51
149.779436
  0
ARC
  8
CONSTRUCTION
 10
14.839177
 20
15.394632
 40
0.199311
 50
151.713834
 51
208.283685
  0
ARC
  8
CONSTRUCTION
 10
14.768746
 20
15.356114
 40
0.119039
 50
208.0207
 51
259.4717
  0
ARC
  8
CONSTRUCTION
 10
14.983939
 20
15.809079
 40
0.1637
 50
308.687092
 51
51.311843
  0
ARC
  8
CONSTRUCTION
 10
14.8946
 20
15.700345
 40
0.304422
 50
50.979262
 51
129.021887
  0
ARC
  8
CONSTRUCTION
 10
14.805257
 20
15.809075
 40
0.1637
 50
128.688216
 51
231.311676
  0
ARC
  8
CONSTRUCTION
 10
14.786264
 20
15.784125
 40
0.132356
 50
230.977916
 51
309.022283
  0
ARC
  8
CONSTRUCTION
 10
14.760598
 20
15.817411
 40
0.174378
 50
308.687897
 51
51.311964
  0
ARC
  8
CONSTRUCTION
 10
14.768391
 20
15.829148
 40
0.16035
 50
50.8638
 51
79.5859
  0
LINE
  8
CONSTRUCTION
 10
14.663913
 11
14.663913
 20
16.158392
 21
16.133392
  0
LINE
  8
CONSTRUCTION
 10
14.663913
 11
14.638913
 20
16.133392
 21
16.133392
  0
LINE
  8
CONSTRUCTION
 10
14.638913
 11
14.638913
 20
16.133392
 21
16.158392
  0
LINE
  8
CONSTRUCTION
 10
14.638913
 11
14.698913
 20
16.158392
 21
16.158392
  0
LINE
  8
CONSTRUCTION
 10
14.698913
 11
14.733913
 20
16.158392
 21
16.153392
  0
LINE
  8
CONSTRUCTION
 10
14.733913
 11
14.758913
 20
16.153392
 21
16.143392
  0
LINE
  8
CONSTRUCTION
 10
14.664347
 11
14.664347
 20
16.279843
 21
16.254843
  0
LINE
  8
CONSTRUCTION
 10
14.664347
 11
14.639347
 20
16.254843
 21
16.254843
  0
LINE
  8
CONSTRUCTION
 10
14.639347
 11
14.639347
 20
16.254843
 21
16.279843
  0
LINE
  8
CONSTRUCTION
 10
14.639347
 11
14.699347
 20
16.279843
 21
16.279843
  0
LINE
  8
CONSTRUCTION
 10
14.699347
 11
14.734347
 20
16.279843
 21
16.274843
  0
LINE
  8
CONSTRUCTION
 10
14.734347
 11
14.759347
 20
16.274843
 21
16.264843
  0
LINE
  8
CONSTRUCTION
 10
23.706423
 11
23.706423
 20
13.822804
 21
13.908586
  0
LINE
  8
CONSTRUCTION
 10
23.706423
 11
23.706423
 20
13.908586
 21
13.994367
  0
LINE
  8
CONSTRUCTION
 10
23.706423
 11
23.206423
 20
13.908586
 21
13.908586
  0
LINE
  8
CONSTRUCTION
 10
23.206423
 11
23.292204
 20
13.908586
 21
13.822804
  0
ARC
  8
CONSTRUCTION
 10
23.369362
 20
14.295254
 40
0.1637
 50
128.687092
 51
231.311843
  0
ARC
  8
CONSTRUCTION
 10
23.458701
 20
14.403987
 40
0.304422
 50
230.979262
 51
309.021887
  0
ARC
  8
CONSTRUCTION
 10
23.548045
 20
14.295257
 40
0.1637
 50
308.688216
 51
51.311676
  0
ARC
  8
CONSTRUCTION
 10
23.567037
 20
14.320207
 40
0.132356
 50
50.977916
 51
129.022283
  0
ARC
  8
CONSTRUCTION
 10
23.592703
 20
14.286922
 40
0.174378
 50
128.687897
 51
231.311964
  0
ARC
  8
CONSTRUCTION
 10
23.58491
 20
14.275184
 40
0.16035
 50
230.8638
 51
259.5859
  0
CIRCLE
  8
CONSTRUCTION
 10
23.656233
 20
14.596512
 40
0.05
  0
LINE
  8
CONSTRUCTION
 10
23.20616
 11
23.20616
 20
14.761133
 21
15.122244
  0
LINE
  8
CONSTRUCTION
 10
23.20616
 11
23.233937
 20
15.122244
 21
15.122241
  0
ARC
  8
CONSTRUCTION
 10
23.689438
 20
15.463183
 40
0.568967
 50
216.8148
 51
271.6842
  0
ARC
  8
CONSTRUCTION
 10
23.546527
 20
15.358557
 40
0.155906
 50
298.751948
 51
348.48402
  0
ARC
  8
CONSTRUCTION
 10
23.403586
 20
15.391592
 40
0.302589
 50
347.758312
 51
16.480382
  0
ARC
  8
CONSTRUCTION
 10
23.557086
 20
15.438543
 40
0.142083
 50
15.885172
 51
55.197039
  0
ARC
  8
CONSTRUCTION
 10
23.556178
 20
15.439655
 40
0.141694
 50
54.638795
 51
121.268726
  0
ARC
  8
CONSTRUCTION
 10
23.557807
 20
15.434936
 40
0.146578
 50
120.855291
 51
165.402309
  0
ARC
  8
CONSTRUCTION
 10
23.676345
 20
15.405211
 40
0.268783
 50
165.6389
 51
194.3611
  0
ARC
  8
CONSTRUCTION
 10
23.129728
 20
15.239605
 40
0.30285
 50
19.068075
 51
75.63788
  0
LINE
  8
CONSTRUCTION
 10
23.204849
 11
23.20485
 20
15.532991
 21
15.227433
  0
ARC
  8
CONSTRUCTION
 10
23.369362
 20
15.868839
 40
0.1637
 50
128.687092
 51
231.311843
  0
ARC
  8
CONSTRUCTION
 10
23.458701
 20
15.977573
 40
0.304422
 50
230.979262
 51
309.021887
  0
ARC
  8
CONSTRUCTION
 10
23.548045
 20
15.868843
 40
0.1637
 50
308.688216
 51
51.311676
  0
ARC
  8
CONSTRUCTION
 10
23.567037
 20
15.893793
 40
0.132356
 50
50.977916
 51
129.022283
  0
ARC
  8
CONSTRUCTION
 10
23.592703
 20
15.860507
 40
0.174378
 50
128.687897
 51
231.311964
  0
ARC
  8
CONSTRUCTION
 10
23.58491
 20
15.84877
 40
0.16035
 50
230.8638
 51
259.5859
  0
LINE
  8
CONSTRUCTION
 10
23.228897
 11
23.228897
 20
16.176153
 21
16.151153
  0
LINE
  8
CONSTRUCTION
 10
23.228897
 11
23.203897
 20
16.151153
 21
16.151153
  0
LINE
  8
CONSTRUCTION
 10
23.203897
 11
23.203897
 20
16.151153
 21
16.176153
  0
LINE
  8
CONSTRUCTION
 10
23.203897
 11
23.263897
 20
16.176153
 21
16.176153
  0
LINE
  8
CONSTRUCTION
 10
23.263897
 11
23.298897
 20
16.176153
 21
16.171153
  0
LINE
  8
CONSTRUCTION
 10
23.298897
 11
23.323897
 20
16.171153
 21
16.161153
  0
LINE
  8
CONSTRUCTION
 10
23.229332
 11
23.229332
 20
16.297603
 21
16.272603
  0
LINE
  8
CONSTRUCTION
 10
23.229332
 11
23.204332
 20
16.272603
 21
16.272603
  0
LINE
  8
CONSTRUCTION
 10
23.204332
 11
23.204332
 20
16.272603
 21
16.297603
  0
LINE
  8
CONSTRUCTION
 10
23.204332
 11
23.264332
 20
16.297603
 21
16.297603
  0
LINE
  8
CONSTRUCTION
 10
23.264332
 11
23.299332
 20
16.297603
 21
16.292603
  0
LINE
  8
CONSTRUCTION
 10
23.299332
 11
23.324332
 20
16.292603
 21
16.282603
  0
TEXT
  8
TEXT
 10
4.892178
 20
17.44557
 30
0.0
 40
1.0
 50
0.0
  1
KARRAN
  0
TEXT
  8
TEXT
 10
4.892178
 20
15.94557
 30
0.0
 40
1.0
 50
0.0
  1

  0
TEXT
  8
TEXT
 10
5.449229
 20
15.85647
 30
0.0
 40
1.0
 50
0.0
  1
QU
  0
TEXT
  8
TEXT
 10
7.237564
 20
15.85647
 30
0.0
 40
1.0
 50
0.0
  1
-
  0
TEXT
  8
TEXT
 10
15.217259
 20
9.273521
 30
0.0
 40
0.5
 50
0.0
  1
Please check template with sink for accuracy
  0
TEXT
  8
TEXT
 10
15.217259
 20
8.523521
 30
0.0
 40
0.5
 50
0.0
  1

  0
TEXT
  8
TEXT
 10
7.812332
 20
15.824519
 30
0.0
 40
1.0
 50
0.0
  1
811
  0
TEXT
  8
TEXT
 10
7.812332
 20
14.324519
 30
0.0
 40
1.0
 50
0.0
  1

  0
ENDSEC
  0
EOF
