  0
SECTION
  2
ENTITIES
  0
ARC
  8
APS_GEOMETRY
 10
1.202033
 20
18.212265
 40
0.47244
 50
90.0
 51
180.0
  0
LINE
  8
APS_GEOMETRY
 10
0.729593
 11
0.729593
 20
18.212265
 21
2.424895
  0
ARC
  8
APS_GEOMETRY
 10
1.202033
 20
2.424895
 40
0.47244
 50
180.0
 51
270.0
  0
LINE
  8
APS_GEOMETRY
 10
1.202033
 11
30.178353
 20
1.952455
 21
1.952455
  0
ARC
  8
APS_GEOMETRY
 10
30.178353
 20
2.424895
 40
0.47244
 50
270.0
 51
0.0
  0
LINE
  8
APS_GEOMETRY
 10
30.650793
 11
30.650793
 20
2.424895
 21
18.212265
  0
ARC
  8
APS_GEOMETRY
 10
30.178353
 20
18.212265
 40
0.47244
 50
0.0
 51
90.0
  0
LINE
  8
APS_GEOMETRY
 10
30.178353
 11
1.202033
 20
18.684705
 21
18.684705
  0
LINE
  8
APS_GEOMETRY
 10
0.729593
 11
4.656124
 20
10.31858
 21
10.31858
  0
LINE
  8
APS_GEOMETRY
 10
8.62791
 11
30.650793
 20
10.31858
 21
10.31858
  0
ARC
  8
CONSTRUCTION
 10
15.419584
 20
2.256549
 40
0.182363
 50
121.026839
 51
130.045456
  0
ARC
  8
CONSTRUCTION
 10
15.363646
 20
2.319486
 40
0.09822
 50
128.687092
 51
231.311843
  0
ARC
  8
CONSTRUCTION
 10
15.417249
 20
2.384726
 40
0.182653
 50
230.979262
 51
309.021887
  0
ARC
  8
CONSTRUCTION
 10
15.470856
 20
2.319489
 40
0.09822
 50
308.687682
 51
51.31267
  0
ARC
  8
CONSTRUCTION
 10
15.425145
 20
2.255425
 40
0.176853
 50
52.7266
 51
65.3459
  0
LINE
  8
CONSTRUCTION
 10
15.460147
 11
15.460147
 20
2.449314
 21
2.593314
  0
ARC
  8
CONSTRUCTION
 10
15.45689
 20
2.504348
 40
0.089025
 50
87.902951
 51
120.171303
  0
ARC
  8
CONSTRUCTION
 10
15.44506
 20
2.524206
 40
0.065913
 50
119.956335
 51
179.906216
  0
ARC
  8
CONSTRUCTION
 10
15.449746
 20
2.524446
 40
0.070599
 50
180.107586
 51
243.41119
  0
ARC
  8
CONSTRUCTION
 10
15.472147
 20
2.569235
 40
0.120678
 50
243.418148
 51
296.580991
  0
ARC
  8
CONSTRUCTION
 10
15.494547
 20
2.524445
 40
0.070599
 50
296.588564
 51
359.892739
  0
ARC
  8
CONSTRUCTION
 10
15.487966
 20
2.524029
 40
0.077181
 50
0.2113
 51
55.0807
  0
LINE
  8
CONSTRUCTION
 10
15.5698
 11
15.431799
 20
2.752318
 21
2.75232
  0
ARC
  8
CONSTRUCTION
 10
15.431533
 20
2.701588
 40
0.050733
 50
89.698802
 51
180.305782
  0
ARC
  8
CONSTRUCTION
 10
15.468064
 20
2.701249
 40
0.087264
 50
179.9552
 51
243.2598
  0
LINE
  8
CONSTRUCTION
 10
15.5698
 11
15.3808
 20
2.623318
 21
2.623318
  0
LINE
  8
CONSTRUCTION
 10
15.2998
 11
15.5698
 20
2.847257
 21
2.847257
  0
LINE
  8
CONSTRUCTION
 10
15.3838
 11
15.3838
 20
2.811257
 21
2.886257
  0
LINE
  8
CONSTRUCTION
 10
15.460147
 11
15.460147
 20
2.918133
 21
3.062134
  0
ARC
  8
CONSTRUCTION
 10
15.45689
 20
2.973168
 40
0.089025
 50
87.902951
 51
120.171303
  0
ARC
  8
CONSTRUCTION
 10
15.44506
 20
2.993025
 40
0.065913
 50
119.956335
 51
179.906216
  0
ARC
  8
CONSTRUCTION
 10
15.449746
 20
2.993266
 40
0.070599
 50
180.107586
 51
243.41119
  0
ARC
  8
CONSTRUCTION
 10
15.472147
 20
3.038055
 40
0.120678
 50
243.418148
 51
296.580991
  0
ARC
  8
CONSTRUCTION
 10
15.494547
 20
2.993265
 40
0.070599
 50
296.588564
 51
359.892739
  0
ARC
  8
CONSTRUCTION
 10
15.487966
 20
2.992848
 40
0.077181
 50
0.2113
 51
55.0807
  0
ARC
  8
CONSTRUCTION
 10
15.459274
 20
3.208205
 40
0.078477
 50
179.6195
 51
260.8532
  0
LINE
  8
CONSTRUCTION
 10
15.3808
 11
15.5698
 20
3.130727
 21
3.130727
  0
LINE
  8
CONSTRUCTION
 10
15.5698
 11
15.5698
 20
3.092137
 21
3.169316
  0
LINE
  8
CONSTRUCTION
 10
15.5698
 11
15.2998
 20
3.286046
 21
3.286046
  0
LINE
  8
CONSTRUCTION
 10
15.2998
 11
15.2998
 20
3.286046
 21
3.264005
  0
LINE
  8
CONSTRUCTION
 10
15.5698
 11
15.5698
 20
3.238726
 21
3.286046
  0
LINE
  8
CONSTRUCTION
 10
15.5698
 11
15.5698
 20
3.286046
 21
3.333365
  0
LINE
  8
CONSTRUCTION
 10
15.2968
 11
15.3208
 20
3.431954
 21
3.431954
  0
LINE
  8
CONSTRUCTION
 10
15.5698
 11
15.3808
 20
3.431954
 21
3.431954
  0
LINE
  8
CONSTRUCTION
 10
15.5698
 11
15.5698
 20
3.393365
 21
3.470544
  0
LINE
  8
CONSTRUCTION
 10
15.5698
 11
15.431799
 20
3.659544
 21
3.659546
  0
ARC
  8
CONSTRUCTION
 10
15.431533
 20
3.608814
 40
0.050733
 50
89.698802
 51
180.305782
  0
ARC
  8
CONSTRUCTION
 10
15.468064
 20
3.608475
 40
0.087264
 50
179.9552
 51
243.2598
  0
LINE
  8
CONSTRUCTION
 10
15.5698
 11
15.3808
 20
3.530544
 21
3.530544
  0
LINE
  8
CONSTRUCTION
 10
15.460147
 11
15.460147
 20
3.690359
 21
3.83436
  0
ARC
  8
CONSTRUCTION
 10
15.45689
 20
3.745394
 40
0.089025
 50
87.902951
 51
120.171303
  0
ARC
  8
CONSTRUCTION
 10
15.44506
 20
3.765251
 40
0.065913
 50
119.956335
 51
179.906216
  0
ARC
  8
CONSTRUCTION
 10
15.449746
 20
3.765492
 40
0.070599
 50
180.107586
 51
243.41119
  0
ARC
  8
CONSTRUCTION
 10
15.472147
 20
3.810281
 40
0.120678
 50
243.418148
 51
296.580991
  0
ARC
  8
CONSTRUCTION
 10
15.494547
 20
3.765491
 40
0.070599
 50
296.588564
 51
359.892739
  0
ARC
  8
CONSTRUCTION
 10
15.487966
 20
3.765074
 40
0.077181
 50
0.2113
 51
55.0807
  0
LINE
  8
APS_GEOMETRY
 10
0.867967
 11
2.282181
 20
18.54633
 21
17.132117
  0
LINE
  8
APS_GEOMETRY
 10
30.512418
 11
29.098205
 20
18.54633
 21
17.132117
  0
LINE
  8
APS_GEOMETRY
 10
30.512418
 11
29.098205
 20
2.090829
 21
3.505043
  0
LINE
  8
APS_GEOMETRY
 10
0.867967
 11
2.282181
 20
2.090829
 21
3.505043
  0
LINE
  8
CONSTRUCTION
 10
2.230199
 11
2.32954
 20
16.65134
 21
16.754663
  0
ARC
  8
CONSTRUCTION
 10
2.274274
 20
16.807799
 40
0.076667
 50
316.125629
 51
136.125629
  0
LINE
  8
CONSTRUCTION
 10
2.219008
 11
2.119667
 20
16.860935
 21
16.757612
  0
LINE
  8
CONSTRUCTION
 10
2.119667
 11
2.335925
 20
16.757612
 21
16.549688
  0
LINE
  8
CONSTRUCTION
 10
2.322609
 11
2.474541
 20
16.747454
 21
16.69386
  0
LINE
  8
CONSTRUCTION
 10
28.632087
 11
28.731429
 20
3.446276
 21
3.549599
  0
ARC
  8
CONSTRUCTION
 10
28.676163
 20
3.602735
 40
0.076667
 50
316.125629
 51
136.125629
  0
LINE
  8
CONSTRUCTION
 10
28.620897
 11
28.521555
 20
3.655871
 21
3.552548
  0
LINE
  8
CONSTRUCTION
 10
28.521555
 11
28.737814
 20
3.552548
 21
3.344624
  0
LINE
  8
CONSTRUCTION
 10
28.724498
 11
28.876429
 20
3.542391
 21
3.488796
  0
LINE
  8
CONSTRUCTION
 10
28.65685
 11
28.75495
 20
17.254067
 21
17.149565
  0
ARC
  8
CONSTRUCTION
 10
28.810847
 20
17.202037
 40
0.076667
 50
223.189956
 51
43.189956
  0
LINE
  8
CONSTRUCTION
 10
28.866743
 11
28.768643
 20
17.254509
 21
17.359012
  0
LINE
  8
CONSTRUCTION
 10
28.768643
 11
28.549917
 20
17.359012
 21
17.153686
  0
LINE
  8
CONSTRUCTION
 10
28.748106
 11
28.686801
 20
17.156856
 21
17.007868
  0
LINE
  8
CONSTRUCTION
 10
2.195429
 11
2.293529
 20
4.041907
 21
3.937405
  0
ARC
  8
CONSTRUCTION
 10
2.349426
 20
3.989877
 40
0.076667
 50
223.189956
 51
43.189956
  0
LINE
  8
CONSTRUCTION
 10
2.405323
 11
2.307223
 20
4.042349
 21
4.146852
  0
LINE
  8
CONSTRUCTION
 10
2.307223
 11
2.088496
 20
4.146852
 21
3.941526
  0
LINE
  8
CONSTRUCTION
 10
2.286685
 11
2.22538
 20
3.944696
 21
3.795708
  0
LINE
  8
APS_GEOMETRY
 10
15.690625
 11
15.690625
 20
18.684705
 21
17.277508
  0
LINE
  8
APS_GEOMETRY
 10
15.690625
 11
15.690625
 20
13.694759
 21
1.952455
  0
CIRCLE
  8
CONSTRUCTION
 10
2.598206
 20
16.859388
 40
0.03
  0
LINE
  8
CONSTRUCTION
 10
2.795839
 11
2.619062
 20
17.156001
 21
16.979224
  0
LINE
  8
CONSTRUCTION
 10
2.619062
 11
2.607277
 20
16.979224
 21
16.991009
  0
LINE
  8
CONSTRUCTION
 10
2.607277
 11
2.595492
 20
16.991009
 21
17.238497
  0
LINE
  8
CONSTRUCTION
 10
2.595492
 11
2.607277
 20
17.238497
 21
17.250282
  0
LINE
  8
CONSTRUCTION
 10
2.607277
 11
2.819409
 20
17.250282
 21
17.03815
  0
LINE
  8
CONSTRUCTION
 10
2.696302
 11
2.849509
 20
17.339384
 21
17.49259
  0
LINE
  8
CONSTRUCTION
 10
2.849509
 11
2.861292
 20
17.49259
 21
17.480804
  0
ARC
  8
CONSTRUCTION
 10
3.199194
 20
17.432201
 40
0.34138
 50
171.8148
 51
226.6842
  0
LINE
  8
CONSTRUCTION
 10
2.919161
 11
2.908554
 20
17.542949
 21
17.532343
  0
LINE
  8
CONSTRUCTION
 10
2.908554
 11
2.897947
 20
17.532343
 21
17.542949
  0
LINE
  8
CONSTRUCTION
 10
2.897947
 11
2.908554
 20
17.542949
 21
17.553556
  0
LINE
  8
CONSTRUCTION
 10
2.908554
 11
2.93401
 20
17.553556
 21
17.5281
  0
LINE
  8
CONSTRUCTION
 10
2.93401
 11
2.946738
 20
17.5281
 21
17.511129
  0
LINE
  8
CONSTRUCTION
 10
2.946738
 11
2.953102
 20
17.511129
 21
17.49628
  0
LINE
  8
CONSTRUCTION
 10
2.970872
 11
2.960265
 20
17.594292
 21
17.583685
  0
LINE
  8
CONSTRUCTION
 10
2.960265
 11
2.949659
 20
17.583685
 21
17.594292
  0
LINE
  8
CONSTRUCTION
 10
2.949659
 11
2.960265
 20
17.594292
 21
17.604899
  0
LINE
  8
CONSTRUCTION
 10
2.960265
 11
2.985721
 20
17.604899
 21
17.579443
  0
LINE
  8
CONSTRUCTION
 10
2.985721
 11
2.998449
 20
17.579443
 21
17.562472
  0
LINE
  8
CONSTRUCTION
 10
2.998449
 11
3.004813
 20
17.562472
 21
17.547623
  0
CIRCLE
  8
CONSTRUCTION
 10
28.982908
 20
3.608677
 40
0.03
  0
LINE
  8
CONSTRUCTION
 10
29.180541
 11
29.003764
 20
3.90529
 21
3.728513
  0
LINE
  8
CONSTRUCTION
 10
29.003764
 11
28.991979
 20
3.728513
 21
3.740299
  0
LINE
  8
CONSTRUCTION
 10
28.991979
 11
28.980194
 20
3.740299
 21
3.987786
  0
LINE
  8
CONSTRUCTION
 10
28.980194
 11
28.991979
 20
3.987786
 21
3.999571
  0
LINE
  8
CONSTRUCTION
 10
28.991979
 11
29.204111
 20
3.999571
 21
3.787439
  0
LINE
  8
CONSTRUCTION
 10
29.081004
 11
29.23421
 20
4.088673
 21
4.24188
  0
LINE
  8
CONSTRUCTION
 10
29.23421
 11
29.245994
 20
4.24188
 21
4.230094
  0
ARC
  8
CONSTRUCTION
 10
29.583896
 20
4.18149
 40
0.34138
 50
171.8148
 51
226.6842
  0
LINE
  8
CONSTRUCTION
 10
29.303862
 11
29.293256
 20
4.292238
 21
4.281632
  0
LINE
  8
CONSTRUCTION
 10
29.293256
 11
29.282649
 20
4.281632
 21
4.292238
  0
LINE
  8
CONSTRUCTION
 10
29.282649
 11
29.293256
 20
4.292238
 21
4.302845
  0
LINE
  8
CONSTRUCTION
 10
29.293256
 11
29.318712
 20
4.302845
 21
4.277389
  0
LINE
  8
CONSTRUCTION
 10
29.318712
 11
29.33144
 20
4.277389
 21
4.260419
  0
LINE
  8
CONSTRUCTION
 10
29.33144
 11
29.337804
 20
4.260419
 21
4.245569
  0
LINE
  8
CONSTRUCTION
 10
29.355574
 11
29.344967
 20
4.343581
 21
4.332975
  0
LINE
  8
CONSTRUCTION
 10
29.344967
 11
29.334361
 20
4.332975
 21
4.343581
  0
LINE
  8
CONSTRUCTION
 10
29.334361
 11
29.344967
 20
4.343581
 21
4.354188
  0
LINE
  8
CONSTRUCTION
 10
29.344967
 11
29.370423
 20
4.354188
 21
4.328732
  0
LINE
  8
CONSTRUCTION
 10
29.370423
 11
29.383151
 20
4.328732
 21
4.311761
  0
LINE
  8
CONSTRUCTION
 10
29.383151
 11
29.389515
 20
4.311761
 21
4.296912
  0
CIRCLE
  8
CONSTRUCTION
 10
28.876955
 20
16.872351
 40
0.03
  0
LINE
  8
CONSTRUCTION
 10
29.165083
 11
28.995819
 20
16.662541
 21
16.846524
  0
LINE
  8
CONSTRUCTION
 10
28.995819
 11
29.008084
 20
16.846524
 21
16.857808
  0
LINE
  8
CONSTRUCTION
 10
29.008084
 11
29.255848
 20
16.857808
 21
16.85928
  0
LINE
  8
CONSTRUCTION
 10
29.255848
 11
29.267132
 20
16.85928
 21
16.847014
  0
LINE
  8
CONSTRUCTION
 10
29.267132
 11
29.046353
 20
16.847014
 21
16.643897
  0
LINE
  8
CONSTRUCTION
 10
29.352451
 11
29.499146
 20
16.754358
 21
16.594906
  0
LINE
  8
CONSTRUCTION
 10
29.499146
 11
29.48688
 20
16.594906
 21
16.583624
  0
ARC
  8
CONSTRUCTION
 10
29.424252
 20
16.248037
 40
0.34138
 50
79.428856
 51
134.298256
  0
LINE
  8
CONSTRUCTION
 10
29.546562
 11
29.536406
 20
16.523218
 21
16.534257
  0
LINE
  8
CONSTRUCTION
 10
29.536406
 11
29.547445
 20
16.534257
 21
16.544413
  0
LINE
  8
CONSTRUCTION
 10
29.547445
 11
29.557601
 20
16.544413
 21
16.533374
  0
LINE
  8
CONSTRUCTION
 10
29.557601
 11
29.531107
 20
16.533374
 21
16.509
  0
LINE
  8
CONSTRUCTION
 10
29.531107
 11
29.513622
 20
16.509
 21
16.496989
  0
LINE
  8
CONSTRUCTION
 10
29.513622
 11
29.49852
 20
16.496989
 21
16.491249
  0
LINE
  8
CONSTRUCTION
 10
29.595707
 11
29.585552
 20
16.469414
 21
16.480453
  0
LINE
  8
CONSTRUCTION
 10
29.585552
 11
29.59659
 20
16.480453
 21
16.490608
  0
LINE
  8
CONSTRUCTION
 10
29.59659
 11
29.606746
 20
16.490608
 21
16.479569
  0
LINE
  8
CONSTRUCTION
 10
29.606746
 11
29.580253
 20
16.479569
 21
16.455195
  0
LINE
  8
CONSTRUCTION
 10
29.580253
 11
29.562767
 20
16.455195
 21
16.443185
  0
LINE
  8
CONSTRUCTION
 10
29.562767
 11
29.547666
 20
16.443185
 21
16.437445
  0
CIRCLE
  8
CONSTRUCTION
 10
2.399595
 20
3.611069
 40
0.03
  0
LINE
  8
CONSTRUCTION
 10
2.687723
 11
2.518459
 20
3.401259
 21
3.585242
  0
LINE
  8
CONSTRUCTION
 10
2.518459
 11
2.530724
 20
3.585242
 21
3.596526
  0
LINE
  8
CONSTRUCTION
 10
2.530724
 11
2.778488
 20
3.596526
 21
3.597998
  0
LINE
  8
CONSTRUCTION
 10
2.778488
 11
2.789772
 20
3.597998
 21
3.585733
  0
LINE
  8
CONSTRUCTION
 10
2.789772
 11
2.568993
 20
3.585733
 21
3.382616
  0
LINE
  8
CONSTRUCTION
 10
2.875091
 11
3.021786
 20
3.493076
 21
3.333624
  0
LINE
  8
CONSTRUCTION
 10
3.021786
 11
3.00952
 20
3.333624
 21
3.322342
  0
ARC
  8
CONSTRUCTION
 10
2.946892
 20
2.986756
 40
0.34138
 50
79.428856
 51
134.298256
  0
LINE
  8
CONSTRUCTION
 10
3.069202
 11
3.059046
 20
3.261936
 21
3.272975
  0
LINE
  8
CONSTRUCTION
 10
3.059046
 11
3.070085
 20
3.272975
 21
3.283131
  0
LINE
  8
CONSTRUCTION
 10
3.070085
 11
3.080241
 20
3.283131
 21
3.272092
  0
LINE
  8
CONSTRUCTION
 10
3.080241
 11
3.053747
 20
3.272092
 21
3.247718
  0
LINE
  8
CONSTRUCTION
 10
3.053747
 11
3.036262
 20
3.247718
 21
3.235707
  0
LINE
  8
CONSTRUCTION
 10
3.036262
 11
3.02116
 20
3.235707
 21
3.229967
  0
LINE
  8
CONSTRUCTION
 10
3.118347
 11
3.108191
 20
3.208132
 21
3.219171
  0
LINE
  8
CONSTRUCTION
 10
3.108191
 11
3.11923
 20
3.219171
 21
3.229327
  0
LINE
  8
CONSTRUCTION
 10
3.11923
 11
3.129386
 20
3.229327
 21
3.218288
  0
LINE
  8
CONSTRUCTION
 10
3.129386
 11
3.102893
 20
3.218288
 21
3.193914
  0
LINE
  8
CONSTRUCTION
 10
3.102893
 11
3.085407
 20
3.193914
 21
3.181903
  0
LINE
  8
CONSTRUCTION
 10
3.085407
 11
3.070306
 20
3.181903
 21
3.176163
  0
LINE
  8
CONSTRUCTION
 10
5.730349
 11
5.397015
 20
10.096226
 21
10.096228
  0
ARC
  8
CONSTRUCTION
 10
5.573254
 20
10.096464
 40
0.176239
 50
121.813563
 51
180.07656
  0
LINE
  8
CONSTRUCTION
 10
5.480349
 11
5.669236
 20
10.246226
 21
10.362893
  0
ARC
  8
CONSTRUCTION
 10
5.607753
 20
10.468447
 40
0.122156
 50
300.220013
 51
59.779436
  0
ARC
  8
CONSTRUCTION
 10
5.574788
 20
10.398489
 40
0.199311
 50
61.713834
 51
118.283685
  0
ARC
  8
CONSTRUCTION
 10
5.536271
 20
10.46892
 40
0.119039
 50
118.0207
 51
169.4717
  0
ARC
  8
CONSTRUCTION
 10
5.989236
 20
10.253727
 40
0.1637
 50
218.687092
 51
321.311843
  0
ARC
  8
CONSTRUCTION
 10
5.880502
 20
10.343066
 40
0.304422
 50
320.979262
 51
39.021887
  0
ARC
  8
CONSTRUCTION
 10
5.989232
 20
10.43241
 40
0.1637
 50
38.688216
 51
141.311676
  0
ARC
  8
CONSTRUCTION
 10
5.964282
 20
10.451402
 40
0.132356
 50
140.977916
 51
219.022283
  0
ARC
  8
CONSTRUCTION
 10
5.997567
 20
10.477068
 40
0.174378
 50
218.687897
 51
321.311964
  0
ARC
  8
CONSTRUCTION
 10
6.009305
 20
10.469275
 40
0.16035
 50
320.8638
 51
349.5859
  0
CIRCLE
  8
CONSTRUCTION
 10
6.332493
 20
10.146418
 40
0.05
  0
ARC
  8
CONSTRUCTION
 10
6.642233
 20
10.253727
 40
0.1637
 50
218.687092
 51
321.311843
  0
ARC
  8
CONSTRUCTION
 10
6.5335
 20
10.343066
 40
0.304422
 50
320.979262
 51
39.021887
  0
ARC
  8
CONSTRUCTION
 10
6.64223
 20
10.43241
 40
0.1637
 50
38.688216
 51
141.311676
  0
ARC
  8
CONSTRUCTION
 10
6.61728
 20
10.451402
 40
0.132356
 50
140.977916
 51
219.022283
  0
ARC
  8
CONSTRUCTION
 10
6.650565
 20
10.477068
 40
0.174378
 50
218.687897
 51
321.311964
  0
ARC
  8
CONSTRUCTION
 10
6.662303
 20
10.469275
 40
0.16035
 50
320.8638
 51
349.5859
  0
LINE
  8
CONSTRUCTION
 10
7.269678
 11
6.936344
 20
10.096226
 21
10.096228
  0
ARC
  8
CONSTRUCTION
 10
7.112583
 20
10.096464
 40
0.176239
 50
121.813563
 51
180.07656
  0
LINE
  8
CONSTRUCTION
 10
7.019678
 11
7.208565
 20
10.246226
 21
10.362893
  0
ARC
  8
CONSTRUCTION
 10
7.147082
 20
10.468447
 40
0.122156
 50
300.220013
 51
59.779436
  0
ARC
  8
CONSTRUCTION
 10
7.114118
 20
10.398489
 40
0.199311
 50
61.713834
 51
118.283685
  0
ARC
  8
CONSTRUCTION
 10
7.0756
 20
10.46892
 40
0.119039
 50
118.0207
 51
169.4717
  0
LINE
  8
CONSTRUCTION
 10
7.473902
 11
7.448902
 20
10.563978
 21
10.563978
  0
LINE
  8
CONSTRUCTION
 10
7.448902
 11
7.448902
 20
10.563978
 21
10.588978
  0
LINE
  8
CONSTRUCTION
 10
7.448902
 11
7.473902
 20
10.588978
 21
10.588978
  0
LINE
  8
CONSTRUCTION
 10
7.473902
 11
7.473902
 20
10.588978
 21
10.528978
  0
LINE
  8
CONSTRUCTION
 10
7.473902
 11
7.468902
 20
10.528978
 21
10.493978
  0
LINE
  8
CONSTRUCTION
 10
7.468902
 11
7.458902
 20
10.493978
 21
10.468978
  0
LINE
  8
CONSTRUCTION
 10
7.595352
 11
7.570352
 20
10.563543
 21
10.563543
  0
LINE
  8
CONSTRUCTION
 10
7.570352
 11
7.570352
 20
10.563543
 21
10.588543
  0
LINE
  8
CONSTRUCTION
 10
7.570352
 11
7.595352
 20
10.588543
 21
10.588543
  0
LINE
  8
CONSTRUCTION
 10
7.595352
 11
7.595352
 20
10.588543
 21
10.528543
  0
LINE
  8
CONSTRUCTION
 10
7.595352
 11
7.590352
 20
10.528543
 21
10.493543
  0
LINE
  8
CONSTRUCTION
 10
7.590352
 11
7.580352
 20
10.493543
 21
10.468543
  0
LINE
  8
CONSTRUCTION
 10
15.953982
 11
15.953982
 20
14.255436
 21
14.341217
  0
LINE
  8
CONSTRUCTION
 10
15.953982
 11
15.953982
 20
14.341217
 21
14.426999
  0
LINE
  8
CONSTRUCTION
 10
15.953982
 11
15.453982
 20
14.341217
 21
14.341217
  0
LINE
  8
CONSTRUCTION
 10
15.453982
 11
15.539763
 20
14.341217
 21
14.255436
  0
ARC
  8
CONSTRUCTION
 10
15.616921
 20
14.727885
 40
0.1637
 50
128.687092
 51
231.311843
  0
ARC
  8
CONSTRUCTION
 10
15.70626
 20
14.836619
 40
0.304422
 50
230.979262
 51
309.021887
  0
ARC
  8
CONSTRUCTION
 10
15.795603
 20
14.727889
 40
0.1637
 50
308.688216
 51
51.311676
  0
ARC
  8
CONSTRUCTION
 10
15.814596
 20
14.752839
 40
0.132356
 50
50.977916
 51
129.022283
  0
ARC
  8
CONSTRUCTION
 10
15.840261
 20
14.719553
 40
0.174378
 50
128.687897
 51
231.311964
  0
ARC
  8
CONSTRUCTION
 10
15.832469
 20
14.707816
 40
0.16035
 50
230.8638
 51
259.5859
  0
CIRCLE
  8
CONSTRUCTION
 10
15.903792
 20
15.029143
 40
0.05
  0
LINE
  8
CONSTRUCTION
 10
15.453719
 11
15.453719
 20
15.193764
 21
15.554876
  0
LINE
  8
CONSTRUCTION
 10
15.453719
 11
15.481495
 20
15.554876
 21
15.554872
  0
ARC
  8
CONSTRUCTION
 10
15.936997
 20
15.895814
 40
0.568967
 50
216.8148
 51
271.6842
  0
ARC
  8
CONSTRUCTION
 10
15.794086
 20
15.791189
 40
0.155906
 50
298.751948
 51
348.48402
  0
ARC
  8
CONSTRUCTION
 10
15.651144
 20
15.824223
 40
0.302589
 50
347.758312
 51
16.480382
  0
ARC
  8
CONSTRUCTION
 10
15.804644
 20
15.871174
 40
0.142083
 50
15.885172
 51
55.197039
  0
ARC
  8
CONSTRUCTION
 10
15.803737
 20
15.872287
 40
0.141694
 50
54.638795
 51
121.268726
  0
ARC
  8
CONSTRUCTION
 10
15.805365
 20
15.867567
 40
0.146578
 50
120.855291
 51
165.402309
  0
ARC
  8
CONSTRUCTION
 10
15.923904
 20
15.837842
 40
0.268783
 50
165.6389
 51
194.3611
  0
ARC
  8
CONSTRUCTION
 10
15.377286
 20
15.672237
 40
0.30285
 50
19.068075
 51
75.63788
  0
LINE
  8
CONSTRUCTION
 10
15.452408
 11
15.452409
 20
15.965622
 21
15.660065
  0
LINE
  8
CONSTRUCTION
 10
15.476456
 11
15.476456
 20
16.250516
 21
16.225516
  0
LINE
  8
CONSTRUCTION
 10
15.476456
 11
15.451456
 20
16.225516
 21
16.225516
  0
LINE
  8
CONSTRUCTION
 10
15.451456
 11
15.451456
 20
16.225516
 21
16.250516
  0
LINE
  8
CONSTRUCTION
 10
15.451456
 11
15.511456
 20
16.250516
 21
16.250516
  0
LINE
  8
CONSTRUCTION
 10
15.511456
 11
15.546456
 20
16.250516
 21
16.245516
  0
LINE
  8
CONSTRUCTION
 10
15.546456
 11
15.571456
 20
16.245516
 21
16.235516
  0
LINE
  8
CONSTRUCTION
 10
15.476891
 11
15.476891
 20
16.371967
 21
16.346967
  0
LINE
  8
CONSTRUCTION
 10
15.476891
 11
15.451891
 20
16.346967
 21
16.346967
  0
LINE
  8
CONSTRUCTION
 10
15.451891
 11
15.451891
 20
16.346967
 21
16.371967
  0
LINE
  8
CONSTRUCTION
 10
15.451891
 11
15.511891
 20
16.371967
 21
16.371967
  0
LINE
  8
CONSTRUCTION
 10
15.511891
 11
15.546891
 20
16.371967
 21
16.366967
  0
LINE
  8
CONSTRUCTION
 10
15.546891
 11
15.571891
 20
16.366967
 21
16.356967
  0
ARC
  8
CONSTRUCTION
 10
0.95523
 20
10.580839
 40
0.182363
 50
31.026839
 51
40.045456
  0
ARC
  8
CONSTRUCTION
 10
1.018167
 20
10.636777
 40
0.09822
 50
38.687092
 51
141.311843
  0
ARC
  8
CONSTRUCTION
 10
1.083407
 20
10.583174
 40
0.182653
 50
140.979262
 51
219.021887
  0
ARC
  8
CONSTRUCTION
 10
1.01817
 20
10.529567
 40
0.09822
 50
218.687682
 51
321.31267
  0
ARC
  8
CONSTRUCTION
 10
0.954106
 20
10.575278
 40
0.176853
 50
322.7266
 51
335.3459
  0
LINE
  8
CONSTRUCTION
 10
1.147995
 11
1.291995
 20
10.540276
 21
10.540276
  0
ARC
  8
CONSTRUCTION
 10
1.20303
 20
10.543533
 40
0.089025
 50
357.902951
 51
30.171303
  0
ARC
  8
CONSTRUCTION
 10
1.222887
 20
10.555363
 40
0.065913
 50
29.956335
 51
89.906216
  0
ARC
  8
CONSTRUCTION
 10
1.223127
 20
10.550677
 40
0.070599
 50
90.107586
 51
153.41119
  0
ARC
  8
CONSTRUCTION
 10
1.267916
 20
10.528276
 40
0.120678
 50
153.418148
 51
206.580991
  0
ARC
  8
CONSTRUCTION
 10
1.223126
 20
10.505876
 40
0.070599
 50
206.588564
 51
269.892739
  0
ARC
  8
CONSTRUCTION
 10
1.22271
 20
10.512457
 40
0.077181
 50
270.2113
 51
325.0807
  0
LINE
  8
CONSTRUCTION
 10
1.450999
 11
1.451001
 20
10.430623
 21
10.568624
  0
ARC
  8
CONSTRUCTION
 10
1.400269
 20
10.56889
 40
0.050733
 50
359.698802
 51
90.305782
  0
ARC
  8
CONSTRUCTION
 10
1.39993
 20
10.532359
 40
0.087264
 50
89.9552
 51
153.2598
  0
LINE
  8
CONSTRUCTION
 10
1.321999
 11
1.321999
 20
10.430623
 21
10.619623
  0
LINE
  8
CONSTRUCTION
 10
1.545938
 11
1.545938
 20
10.700623
 21
10.430623
  0
LINE
  8
CONSTRUCTION
 10
1.509938
 11
1.584938
 20
10.616623
 21
10.616623
  0
LINE
  8
CONSTRUCTION
 10
1.616814
 11
1.760815
 20
10.540276
 21
10.540276
  0
ARC
  8
CONSTRUCTION
 10
1.671849
 20
10.543533
 40
0.089025
 50
357.902951
 51
30.171303
  0
ARC
  8
CONSTRUCTION
 10
1.691706
 20
10.555363
 40
0.065913
 50
29.956335
 51
89.906216
  0
ARC
  8
CONSTRUCTION
 10
1.691947
 20
10.550677
 40
0.070599
 50
90.107586
 51
153.41119
  0
ARC
  8
CONSTRUCTION
 10
1.736736
 20
10.528276
 40
0.120678
 50
153.418148
 51
206.580991
  0
ARC
  8
CONSTRUCTION
 10
1.691946
 20
10.505876
 40
0.070599
 50
206.588564
 51
269.892739
  0
ARC
  8
CONSTRUCTION
 10
1.691529
 20
10.512457
 40
0.077181
 50
270.2113
 51
325.0807
  0
ARC
  8
CONSTRUCTION
 10
1.906886
 20
10.541149
 40
0.078477
 50
89.6195
 51
170.8532
  0
LINE
  8
CONSTRUCTION
 10
1.829408
 11
1.829408
 20
10.619623
 21
10.430623
  0
LINE
  8
CONSTRUCTION
 10
1.790819
 11
1.867997
 20
10.430623
 21
10.430623
  0
LINE
  8
CONSTRUCTION
 10
1.984727
 11
1.984727
 20
10.430623
 21
10.700623
  0
LINE
  8
CONSTRUCTION
 10
1.984727
 11
1.962686
 20
10.700623
 21
10.700623
  0
LINE
  8
CONSTRUCTION
 10
1.937407
 11
1.984727
 20
10.430623
 21
10.430623
  0
LINE
  8
CONSTRUCTION
 10
1.984727
 11
2.032046
 20
10.430623
 21
10.430623
  0
LINE
  8
CONSTRUCTION
 10
2.130635
 11
2.130635
 20
10.703623
 21
10.679623
  0
LINE
  8
CONSTRUCTION
 10
2.130635
 11
2.130635
 20
10.430623
 21
10.619623
  0
LINE
  8
CONSTRUCTION
 10
2.092046
 11
2.169225
 20
10.430623
 21
10.430623
  0
LINE
  8
CONSTRUCTION
 10
2.358225
 11
2.358227
 20
10.430623
 21
10.568624
  0
ARC
  8
CONSTRUCTION
 10
2.307495
 20
10.56889
 40
0.050733
 50
359.698802
 51
90.305782
  0
ARC
  8
CONSTRUCTION
 10
2.307156
 20
10.532359
 40
0.087264
 50
89.9552
 51
153.2598
  0
LINE
  8
CONSTRUCTION
 10
2.229225
 11
2.229225
 20
10.430623
 21
10.619623
  0
LINE
  8
CONSTRUCTION
 10
2.38904
 11
2.533041
 20
10.540276
 21
10.540276
  0
ARC
  8
CONSTRUCTION
 10
2.444075
 20
10.543533
 40
0.089025
 50
357.902951
 51
30.171303
  0
ARC
  8
CONSTRUCTION
 10
2.463932
 20
10.555363
 40
0.065913
 50
29.956335
 51
89.906216
  0
ARC
  8
CONSTRUCTION
 10
2.464173
 20
10.550677
 40
0.070599
 50
90.107586
 51
153.41119
  0
ARC
  8
CONSTRUCTION
 10
2.508962
 20
10.528276
 40
0.120678
 50
153.418148
 51
206.580991
  0
ARC
  8
CONSTRUCTION
 10
2.464172
 20
10.505876
 40
0.070599
 50
206.588564
 51
269.892739
  0
ARC
  8
CONSTRUCTION
 10
2.463755
 20
10.512457
 40
0.077181
 50
270.2113
 51
325.0807
  0
TEXT
  8
TEXT
 10
5.400154
 20
16.427689
 30
0.0
 40
1.0
 50
0.0
  1
KARRAN
  0
TEXT
  8
TEXT
 10
5.400154
 20
14.927689
 30
0.0
 40
1.0
 50
0.0
  1

  0
TEXT
  8
TEXT
 10
5.817
 20
14.765823
 30
0.0
 40
1.0
 50
0.0
  1
QU
  0
TEXT
  8
TEXT
 10
7.605335
 20
14.765823
 30
0.0
 40
1.0
 50
0.0
  1
-
  0
TEXT
  8
TEXT
 10
16.308716
 20
7.064233
 30
0.0
 40
0.5
 50
0.0
  1
Please check templat
  0
TEXT
  8
TEXT
 10
22.469331
 20
7.064233
 30
0.0
 40
0.5
 50
0.0
  1
e with s
  0
TEXT
  8
TEXT
 10
25.162865
 20
7.064233
 30
0.0
 40
0.5
 50
0.0
  1
ink for accuracy
  0
TEXT
  8
TEXT
 10
8.175117
 20
14.738175
 30
0.0
 40
1.0
 50
0.0
  1
810
  0
TEXT
  8
TEXT
 10
8.175117
 20
13.238175
 30
0.0
 40
1.0
 50
0.0
  1

  0
TEXT
  8
TEXT
 10
5.768861
 20
13.335828
 30
0.0
 40
1.0
 50
0.0
  1
QU-812
  0
TEXT
  8
TEXT
 10
5.768861
 20
11.835828
 30
0.0
 40
1.0
 50
0.0
  1
QU-875
  0
TEXT
  8
TEXT
 10
5.768861
 20
10.335828
 30
0.0
 40
1.0
 50
0.0
  1

  0
ENDSEC
  0
EOF
