  0
SECTION
  2
HEADER
  9
$ACADVER
  1
AC1009
  9
$INSBASE
 10
0.0
 20
0.0
 30
0.0
  9
$EXTMIN
 10
2.3033102191939738
 20
4.0206018587688268
 30
0.0
  9
$EXTMAX
 10
30.84008299092557
 20
20.443776450449601
 30
0.0
  9
$LIMMIN
 10
0.0
 20
0.0
  9
$LIMMAX
 10
12.0
 20
9.0
  9
$ORTHOMODE
 70
     0
  9
$REGENMODE
 70
     1
  9
$FILLMODE
 70
     1
  9
$QTEXTMODE
 70
     0
  9
$MIRRTEXT
 70
     0
  9
$DRAGMODE
 70
     2
  9
$LTSCALE
 40
1.0
  9
$OSMODE
 70
   695
  9
$ATTMODE
 70
     1
  9
$TEXTSIZE
 40
1.0
  9
$TRACEWID
 40
0.05
  9
$TEXTSTYLE
  7
STANDARD
  9
$CLAYER
  8
OUTLINE
  9
$CELTYPE
  6
CONTINUOUS
  9
$CECOLOR
 62
   256
  9
$DIMSCALE
 40
1.0
  9
$DIMASZ
 40
0.125
  9
$DIMEXO
 40
0.0625
  9
$DIMDLI
 40
0.25
  9
$DIMRND
 40
0.0
  9
$DIMDLE
 40
0.0
  9
$DIMEXE
 40
0.125
  9
$DIMTP
 40
0.005
  9
$DIMTM
 40
-0.005
  9
$DIMTXT
 40
0.125
  9
$DIMCEN
 40
0.09
  9
$DIMTSZ
 40
0.0
  9
$DIMTOL
 70
     0
  9
$DIMLIM
 70
     0
  9
$DIMTIH
 70
     1
  9
$DIMTOH
 70
     1
  9
$DIMSE1
 70
     0
  9
$DIMSE2
 70
     0
  9
$DIMTAD
 70
     0
  9
$DIMZIN
 70
     0
  9
$DIMBLK
  1

  9
$DIMASO
 70
     1
  9
$DIMSHO
 70
     1
  9
$DIMPOST
  1

  9
$DIMAPOST
  1

  9
$DIMALT
 70
     0
  9
$DIMALTD
 70
     0
  9
$DIMALTF
 40
25.399999999999999
  9
$DIMLFAC
 40
1.0
  9
$DIMTOFL
 70
     1
  9
$DIMTVP
 40
0.0
  9
$DIMTIX
 70
     0
  9
$DIMSOXD
 70
     0
  9
$DIMSAH
 70
     0
  9
$DIMBLK1
  1

  9
$DIMBLK2
  1

  9
$DIMSTYLE
  2
DSTYLE1
  9
$DIMCLRD
 70
     0
  9
$DIMCLRE
 70
     0
  9
$DIMCLRT
 70
     0
  9
$DIMTFAC
 40
1.0
  9
$DIMGAP
 40
0.0625
  9
$LUNITS
 70
     4
  9
$LUPREC
 70
     4
  9
$SKETCHINC
 40
0.1
  9
$FILLETRAD
 40
3.5800000000000001
  9
$AUNITS
 70
     0
  9
$AUPREC
 70
     2
  9
$MENU
  1
.
  9
$ELEVATION
 40
0.0
  9
$PELEVATION
 40
0.0
  9
$THICKNESS
 40
0.0
  9
$LIMCHECK
 70
     0
  9
$BLIPMODE
 70
     0
  9
$CHAMFERA
 40
0.25
  9
$CHAMFERB
 40
0.25
  9
$SKPOLY
 70
     0
  9
$TDCREATE
 40
2454469.7244103132
  9
$TDUPDATE
 40
2456412.6077956939
  9
$TDINDWG
 40
0.2313762847
  9
$TDUSRTIMER
 40
0.2313762847
  9
$USRTIMER
 70
     1
  9
$ANGBASE
 50
0.0
  9
$ANGDIR
 70
     0
  9
$PDMODE
 70
     2
  9
$PDSIZE
 40
-0.01
  9
$PLINEWID
 40
0.0
  9
$COORDS
 70
     0
  9
$SPLFRAME
 70
     0
  9
$SPLINETYPE
 70
     6
  9
$SPLINESEGS
 70
     8
  9
$ATTDIA
 70
     0
  9
$ATTREQ
 70
     1
  9
$HANDLING
 70
     1
  9
$HANDSEED
  5
73B
  9
$SURFTAB1
 70
     6
  9
$SURFTAB2
 70
     6
  9
$SURFTYPE
 70
     6
  9
$SURFU
 70
     6
  9
$SURFV
 70
     6
  9
$UCSNAME
  2

  9
$UCSORG
 10
0.0
 20
0.0
 30
0.0
  9
$UCSXDIR
 10
1.0
 20
0.0
 30
0.0
  9
$UCSYDIR
 10
0.0
 20
1.0
 30
0.0
  9
$PUCSNAME
  2

  9
$PUCSORG
 10
0.0
 20
0.0
 30
0.0
  9
$PUCSXDIR
 10
1.0
 20
0.0
 30
0.0
  9
$PUCSYDIR
 10
0.0
 20
1.0
 30
0.0
  9
$USERI1
 70
     0
  9
$USERI2
 70
     0
  9
$USERI3
 70
     0
  9
$USERI4
 70
     0
  9
$USERI5
 70
     0
  9
$USERR1
 40
0.0
  9
$USERR2
 40
0.0
  9
$USERR3
 40
0.0
  9
$USERR4
 40
0.0
  9
$USERR5
 40
0.0
  9
$WORLDVIEW
 70
     1
  9
$SHADEDGE
 70
     3
  9
$SHADEDIF
 70
    70
  9
$TILEMODE
 70
     1
  9
$MAXACTVP
 70
    64
  9
$PLIMCHECK
 70
     0
  9
$PEXTMIN
 10
0.0007781299246048
 20
0.0000457074547597
 30
-0.0015258207003583
  9
$PEXTMAX
 10
35.521406603571982
 20
23.558853715982352
 30
0.0000000349246037
  9
$PLIMMIN
 10
-0.1249999981226884
 20
-0.1249999981226884
  9
$PLIMMAX
 10
35.875000963060877
 20
23.874999040693751
  9
$UNITMODE
 70
     0
  9
$VISRETAIN
 70
     1
  9
$PLINEGEN
 70
     0
  9
$PSLTSCALE
 70
     1
  0
ENDSEC
  0
SECTION
  2
TABLES
  0
TABLE
  2
VPORT
 70
     1
  0
VPORT
  2
*ACTIVE
 70
     0
 10
0.0
 20
0.0
 11
1.0
 21
1.0
 12
16.548401107242171
 22
12.214747013162651
 13
0.0
 23
0.0
 14
1.0
 24
1.0
 15
0.0
 25
0.0
 16
0.0
 26
0.0
 36
1.0
 17
0.0
 27
0.0
 37
0.0
 40
16.599120210959239
 41
1.9877149877149869
 42
50.0
 43
0.0
 44
0.0
 50
0.0
 51
0.0
 71
     0
 72
 10000
 73
     1
 74
     1
 75
     0
 76
     0
 77
     0
 78
     0
  0
ENDTAB
  0
TABLE
  2
LTYPE
 70
     5
  0
LTYPE
  2
CONTINUOUS
 70
     0
  3
Solid line
 72
    65
 73
     0
 40
0.0
  0
LTYPE
  2
HIDDENNEW02
 70
     0
  3
_ 
 72
    65
 73
     2
 40
0.1875
 49
0.125
 49
-0.0625
  0
LTYPE
  2
PHANTOM2
 70
     0
  3
Phantom (.5x) ___ _ _ ___ _ _ ___ _ _ ___ _ _
 72
    65
 73
     6
 40
1.25
 49
0.625
 49
-0.125
 49
0.125
 49
-0.125
 49
0.125
 49
-0.125
  0
ENDTAB
  0
TABLE
  2
LAYER
 70
     6
  0
LAYER
  2
0
 70
     0
 62
     7
  6
CONTINUOUS
  0
LAYER
  2
TEXT
 70
     0
 62
     1
  6
HIDDENNEW02
  0
LAYER
  2
OUTLINE
 70
     0
 62
     1
  6
CONTINUOUS
  0
LAYER
  2
DEFPOINTS
 70
     0
 62
     7
  6
CONTINUOUS
  0
LAYER
  2
AECOBJEXPLODE_LAYOUT1_PSPA
 70
     0
 62
     7
  6
CONTINUOUS
  0
LAYER
  2
AECOBJEXPLODE_LAYOUT1_VPOR
 70
     0
 62
     7
  6
CONTINUOUS
  0
ENDTAB
  0
TABLE
  2
STYLE
 70
     4
  0
STYLE
  2
STANDARD
 70
     0
 40
0.0
 41
1.0
 50
0.0
 71
     0
 42
1.0
  3
txt
  4

  0
ENDTAB
  0
TABLE
  2
VIEW
 70
     6
  0
ENDTAB
  0
TABLE
  2
UCS
 70
     0
  0
ENDTAB
  0
TABLE
  2
APPID
 70
     5
  0
APPID
  2
ACAD
 70
     0
  0
APPID
  2
ACAD_PSEXT
 70
     0
  0
APPID
  2
ACAD_NAV_VCDISPLAY
 70
     0
  0
APPID
  2
ACAD_MLEADERVER
 70
     0
  0
APPID
  2
ACAD_EXEMPT_FROM_CAD_STANDARDS
 70
     0
  0
ENDTAB
  0
TABLE
  2
DIMSTYLE
 70
     5
  0
DIMSTYLE
  2
DSTYLE1
 70
     0
  3

  4

  5

  6

  7

 40
1.0
 41
0.15
 42
0.125
 43
0.38
 44
0.0625
 45
0.0001
 46
0.0
 47
0.005
 48
0.005
140
0.1
141
0.09
142
0.0
143
1.0
144
1.0
145
0.0
146
1.0
147
0.0625
 71
     0
 72
     0
 73
     1
 74
     1
 75
     1
 76
     0
 77
     0
 78
    15
170
     0
171
     2
172
     0
173
     0
174
     0
175
     0
176
     0
177
     0
178
     0
  0
ENDTAB
  0
ENDSEC
  0
SECTION
  2
BLOCKS
  0
BLOCK
  8
0
  2
$MODEL_SPACE
 70
     0
 10
0.0
 20
0.0
 30
0.0
  3
$MODEL_SPACE
  1

  0
ENDBLK
  5
2D
  8
0
  0
BLOCK
 67
     1
  8
0
  2
$PAPER_SPACE
 70
     0
 10
0.0
 20
0.0
 30
0.0
  3
$PAPER_SPACE
  1

  0
ENDBLK
  5
46
 67
     1
  8
0
  0
BLOCK
  8
0
  2
AECOBJEXPLODE_LAYOUT1_PSPA
 70
     0
 10
0.0
 20
0.0
 30
0.0
  3
AECOBJEXPLODE_LAYOUT1_PSPA
  1

  0
ENDBLK
  5
45
  8
0
  0
BLOCK
  8
0
  2
AECOBJEXPLODE_LAYOUT1_VPOR
 70
     0
 10
0.0
 20
0.0
 30
0.0
  3
AECOBJEXPLODE_LAYOUT1_VPOR
  1

  0
ENDBLK
  5
2C
  8
0
  0
BLOCK
  8
0
  2
U-3018
 70
     0
 10
0.0
 20
0.0
 30
0.0
  3
U-3018
  1

  0
LINE
  5
422
  8
TEXT
  6
CONTINUOUS
 10
14.727984120916959
 20
12.94280126638999
 30
0.0
 11
18.81918740449758
 21
12.94280126638999
 31
0.0
  0
LINE
  5
423
  8
TEXT
  6
CONTINUOUS
 10
15.20411076270727
 20
10.341509266389989
 30
0.0
 11
18.343060762707271
 21
10.341509266389989
 31
0.0
  0
LINE
  5
424
  8
TEXT
  6
CONTINUOUS
 10
18.343060762707271
 20
10.341509266389989
 30
0.0
 11
18.343060762707271
 21
10.97351226638999
 31
0.0
  0
LINE
  5
425
  8
TEXT
  6
CONTINUOUS
 10
18.343060762707271
 20
10.97351226638999
 30
0.0
 11
15.20411076270727
 21
10.97351226638999
 31
0.0
  0
LINE
  5
426
  8
TEXT
  6
CONTINUOUS
 10
15.20411076270727
 20
10.97351226638999
 30
0.0
 11
15.20411076270727
 21
10.341509266389989
 31
0.0
  0
INSERT
  5
427
  8
OUTLINE
  6
CONTINUOUS
  2
*U10
 10
0.0
 20
0.0
 30
0.0
  0
INSERT
  5
428
  8
OUTLINE
  6
CONTINUOUS
  2
*U11
 10
0.0
 20
0.0
 30
0.0
  0
INSERT
  5
429
  8
OUTLINE
  6
CONTINUOUS
  2
*U12
 10
0.0
 20
0.0
 30
0.0
  0
INSERT
  5
42A
  8
AECOBJEXPLODE_LAYOUT1_VPOR
  6
CONTINUOUS
  2
AECOBJEXPLODE_LAYOUT1_VPOR
 10
0.0
 20
0.0
 30
0.0
  0
POLYLINE
  5
42B
  8
OUTLINE
  6
CONTINUOUS
 66
     1
 10
0.0
 20
0.0
 30
0.0
 70
     1
  0
VERTEX
  5
717
  8
OUTLINE
  6
CONTINUOUS
 10
1.735807718025294
 20
7.0946024039315461
 30
0.0
 42
0.4017334078964755
  0
VERTEX
  5
718
  8
OUTLINE
  6
CONTINUOUS
 10
5.2968652520807344
 20
3.3793954031927629
 30
0.0
 42
0.0075651763538911
  0
VERTEX
  5
719
  8
OUTLINE
  6
CONTINUOUS
 10
11.64881091816904
 20
3.3432697848229131
 30
0.0
 42
0.0017348337978056
  0
VERTEX
  5
71A
  8
OUTLINE
  6
CONTINUOUS
 10
20.012432164960341
 20
3.362544563375649
 30
0.0
 42
0.0008958953824254
  0
VERTEX
  5
71B
  8
OUTLINE
  6
CONTINUOUS
 10
25.64627357450637
 20
3.3671132892261531
 30
0.0
 42
0.0110832848737854
  0
VERTEX
  5
71C
  8
OUTLINE
  6
CONTINUOUS
 10
28.335576225877769
 20
3.4359637512228431
 30
0.0
 42
0.3941026784039623
  0
VERTEX
  5
71D
  8
OUTLINE
  6
CONTINUOUS
 10
31.803335977099501
 20
6.9964188976775237
 30
0.0
 42
0.0103203566018264
  0
VERTEX
  5
71E
  8
OUTLINE
  6
CONTINUOUS
 10
31.813408076515799
 20
15.78484857541207
 30
0.0
 42
0.0320888997658614
  0
VERTEX
  5
71F
  8
OUTLINE
  6
CONTINUOUS
 10
31.73491417265021
 20
17.11926790582967
 30
0.0
 42
0.2356148340159328
  0
VERTEX
  5
720
  8
OUTLINE
  6
CONTINUOUS
 10
29.70410477925423
 20
19.733964491912982
 30
0.0
 42
0.096060928038136
  0
VERTEX
  5
721
  8
OUTLINE
  6
CONTINUOUS
 10
28.48351290325785
 20
20.08592251324243
 30
0.0
 42
0.0084917777676016
  0
VERTEX
  5
722
  8
OUTLINE
  6
CONTINUOUS
 10
27.554685132270741
 20
20.117173005187858
 30
0.0
 42
0.0033713466604688
  0
VERTEX
  5
723
  8
OUTLINE
  6
CONTINUOUS
 10
18.912504567263881
 20
20.134227164519871
 30
0.0
 42
-0.0004952348684511
  0
VERTEX
  5
724
  8
OUTLINE
  6
CONTINUOUS
 10
10.99165470711246
 20
20.11365470285546
 30
0.0
 42
0.0049752089510682
  0
VERTEX
  5
725
  8
OUTLINE
  6
CONTINUOUS
 10
5.4446354921407263
 20
20.063265845815639
 30
0.0
 42
0.054619647529207
  0
VERTEX
  5
726
  8
OUTLINE
  6
CONTINUOUS
 10
4.4823384912883819
 20
19.940444223644828
 30
0.0
 42
0.2729045164315587
  0
VERTEX
  5
727
  8
OUTLINE
  6
CONTINUOUS
 10
1.8151761861067039
 20
17.209566959892619
 30
0.0
 42
0.0456198555243514
  0
VERTEX
  5
728
  8
OUTLINE
  6
CONTINUOUS
 10
1.731612102407426
 20
16.533796908671249
 30
0.0
 42
0.0055742740327731
  0
VERTEX
  5
729
  8
OUTLINE
  6
CONTINUOUS
 10
1.685170421418049
 20
13.99980251136177
 30
0.0
 42
0.0091605594335795
  0
SEQEND
  5
72A
  8
OUTLINE
  6
CONTINUOUS
  0
ENDBLK
  5
42F
  8
0
  0
BLOCK
  8
0
  2
*U7
 70
     1
 10
0.0
 20
0.0
 30
0.0
  3
*U7
  1

  0
TEXT
  5
6C3
  8
TEXT
  6
CONTINUOUS
 62
     1
 10
14.9125221705616
 20
12.317221503873981
 30
0.0
 40
0.75
  1
U-3018
  0
ENDBLK
  5
6C5
  8
0
  0
BLOCK
  8
0
  2
*U8
 70
     1
 10
0.0
 20
0.0
 30
0.0
  3
*U8
  1

  0
TEXT
  5
6C7
  8
TEXT
  6
CONTINUOUS
 10
15.414244544367881
 20
11.26440673665282
 30
0.0
 40
0.15
  1
CHECK DIMENSIONS TO
  0
TEXT
  5
6C8
  8
TEXT
  6
CONTINUOUS
 10
15.5875221705616
 20
11.01174643651639
 30
0.0
 40
0.15
  1
INSURE PROPER FIT
  0
ENDBLK
  5
6CA
  8
0
  0
BLOCK
  8
0
  2
*U9
 70
     1
 10
0.0
 20
0.0
 30
0.0
  3
*U9
  1

  0
TEXT
  5
6CC
  8
TEXT
  6
CONTINUOUS
 10
14.66537858256706
 20
13.575513120008891
 30
0.0
 40
0.125
  1
THIS TEMPLATE WILL PROVIDE OPENING FOR:
  0
ENDBLK
  5
6CE
  8
0
  0
BLOCK
  8
0
  2
*U10
 70
     1
 10
0.0
 20
0.0
 30
0.0
  3
*U10
  1

  0
TEXT
  5
70B
  8
TEXT
  6
CONTINUOUS
 62
     1
 10
15.03927471222978
 20
11.74479273347472
 30
0.0
 40
0.75
  1
U-5050
  0
ENDBLK
  5
70D
  8
0
  0
BLOCK
  8
0
  2
*U11
 70
     1
 10
0.0
 20
0.0
 30
0.0
  3
*U11
  1

  0
TEXT
  5
70F
  8
TEXT
  6
CONTINUOUS
 10
15.538950701315731
 20
10.69197796625356
 30
0.0
 40
0.15
  1
CHECK DIMENSIONS TO
  0
TEXT
  5
710
  8
TEXT
  6
CONTINUOUS
 10
15.71222832750945
 20
10.439317666117139
 30
0.0
 40
0.15
  1
INSURE PROPER FIT
  0
ENDBLK
  5
712
  8
0
  0
BLOCK
  8
0
  2
*U12
 70
     1
 10
0.0
 20
0.0
 30
0.0
  3
*U12
  1

  0
TEXT
  5
714
  8
TEXT
  6
CONTINUOUS
 10
14.79008473951491
 20
13.00308434960963
 30
0.0
 40
0.125
  1
THIS TEMPLATE WILL PROVIDE OPENING FOR:
  0
ENDBLK
  5
716
  8
0
  0
ENDSEC
  0
SECTION
  2
ENTITIES
  0
LINE
  5
16
  8
TEXT
  6
CONTINUOUS
 10
14.6032779639691
 20
13.51523003678925
 30
0.0
 11
18.694481247549732
 21
13.51523003678925
 31
0.0
  0
LINE
  5
1B
  8
TEXT
  6
CONTINUOUS
 10
15.07940460575942
 20
10.913938036789251
 30
0.0
 11
18.218354605759409
 21
10.913938036789251
 31
0.0
  0
LINE
  5
1C
  8
TEXT
  6
CONTINUOUS
 10
18.218354605759409
 20
10.913938036789251
 30
0.0
 11
18.218354605759409
 21
11.545941036789239
 31
0.0
  0
LINE
  5
1D
  8
TEXT
  6
CONTINUOUS
 10
18.218354605759409
 20
11.545941036789239
 30
0.0
 11
15.07940460575942
 21
11.545941036789239
 31
0.0
  0
LINE
  5
1E
  8
TEXT
  6
CONTINUOUS
 10
15.07940460575942
 20
11.545941036789239
 30
0.0
 11
15.07940460575942
 21
10.913938036789251
 31
0.0
  0
INSERT
  5
1F
  8
OUTLINE
  6
CONTINUOUS
  2
*U7
 10
0.0
 20
0.0
 30
0.0
  0
INSERT
  5
22
  8
OUTLINE
  6
CONTINUOUS
  2
*U8
 10
0.0
 20
0.0
 30
0.0
  0
INSERT
  5
23
  8
OUTLINE
  6
CONTINUOUS
  2
*U9
 10
0.0
 20
0.0
 30
0.0
  0
INSERT
  5
28
  8
AECOBJEXPLODE_LAYOUT1_VPOR
  6
CONTINUOUS
  2
AECOBJEXPLODE_LAYOUT1_VPOR
 10
0.0
 20
0.0
 30
0.0
  0
POLYLINE
  5
4E1
  8
OUTLINE
  6
CONTINUOUS
 66
     1
 10
0.0
 20
0.0
 30
0.0
 70
     1
  0
VERTEX
  5
72E
  8
OUTLINE
  6
CONTINUOUS
 10
5.6281098459797754
 20
20.284303793836681
 30
0.0
 42
0.4142135623730951
  0
VERTEX
  5
72F
  8
OUTLINE
  6
CONTINUOUS
 10
2.327578145692029
 20
16.983772093548961
 30
0.0
 42
0.0092322332492835
  0
VERTEX
  5
730
  8
OUTLINE
  6
CONTINUOUS
 10
2.3666947339262738
 20
7.4895967555209824
 30
0.0
 42
0.4147542364121513
  0
VERTEX
  5
731
  8
OUTLINE
  6
CONTINUOUS
 10
5.6997044692939971
 20
4.1627328322356041
 30
0.0
 42
0.0040073918583733
  0
VERTEX
  5
732
  8
OUTLINE
  6
CONTINUOUS
 10
8.5129845564486466
 20
4.0813674036457988
 30
0.0
 42
0.0085160496354702
  0
VERTEX
  5
733
  8
OUTLINE
  6
CONTINUOUS
 10
19.103553543232021
 20
4.0500261250510903
 30
0.0
 42
0.0084503623748049
  0
VERTEX
  5
734
  8
OUTLINE
  6
CONTINUOUS
 10
27.46011884567627
 20
4.1640798020263778
 30
0.0
 42
0.4142135623730946
  0
VERTEX
  5
735
  8
OUTLINE
  6
CONTINUOUS
 10
30.80028886681739
 20
7.5042498231670054
 30
0.0
 42
0.0070327085798728
  0
VERTEX
  5
736
  8
OUTLINE
  6
CONTINUOUS
 10
30.813289114607819
 20
16.97257908347477
 30
0.0
 42
0.4142135623730944
  0
VERTEX
  5
737
  8
OUTLINE
  6
CONTINUOUS
 10
27.468844944353279
 20
20.317023253729559
 30
0.0
 42
0.0070322500329207
  0
VERTEX
  5
738
  8
OUTLINE
  6
CONTINUOUS
 10
21.707998043852591
 20
20.443776450449629
 30
0.0
 42
0.0024184109940884
  0
VERTEX
  5
739
  8
OUTLINE
  6
CONTINUOUS
 10
13.02623182785749
 20
20.433496889253661
 30
0.0
 42
0.0123160085476067
  0
SEQEND
  5
73A
  8
OUTLINE
  6
CONTINUOUS
  0
VIEWPORT
  5
33
 67
     1
  8
0
  6
CONTINUOUS
 62
     3
 10
17.761092366748301
 20
11.77944971171855
 30
0.0
 40
47.172943224780838
 41
23.732247085890979
 68
     1
 69
     1
1001
ACAD
1000
MVIEW
1002
{
1070
    16
1010
0.0
1020
0.0
1030
0.0
1010
0.0
1020
0.0
1030
1.0
1040
0.0
1040
23.732247085890979
1040
17.761092366748301
1040
11.77944971171855
1040
50.0
1040
0.0
1040
0.0
1070
     0
1070
   100
1070
     1
1070
     1
1070
     0
1070
     0
1070
     0
1070
     0
1040
0.0
1040
0.0
1040
0.0
1040
0.5
1040
0.5
1040
0.5
1040
0.5
1070
     0
1002
{
1002
}
1002
}
  0
VIEWPORT
  5
3C
 67
     1
  8
DEFPOINTS
  6
CONTINUOUS
 10
17.760372496930209
 20
11.779696463386241
 30
0.0
 40
35.519168756446959
 41
23.557476435169239
 68
     2
 69
     2
1001
ACAD
1000
MVIEW
1002
{
1070
    16
1010
0.0
1020
0.0
1030
0.0
1010
0.0
1020
0.0
1030
1.0
1040
0.0
1040
23.557476436821879
1040
16.675952935421929
1040
12.38983637228881
1040
50.0
1040
0.0
1040
0.0
1070
     0
1070
   100
1070
     1
1070
     1
1070
     0
1070
     0
1070
     0
1070
     0
1040
0.0
1040
0.0
1040
0.0
1040
1.0
1040
1.0
1040
0.0
1040
0.0
1070
     0
1002
{
1003
0
1002
}
1002
}
  0
INSERT
  5
41
 67
     1
  8
AECOBJEXPLODE_LAYOUT1_PSPA
  6
CONTINUOUS
  2
AECOBJEXPLODE_LAYOUT1_PSPA
 10
0.0
 20
0.0
 30
0.0
  0
ENDSEC
  0
EOF
