  0
SECTION
  2
ENTITIES
  0
ARC
  8
APS_GEOMETRY
 10
27.393168
 20
35.879669
 40
5.362089
 50
0.0
 51
27.285277
  0
ARC
  8
APS_GEOMETRY
 10
25.999927
 20
35.161017
 40
6.929756
 50
27.285277
 51
51.23448
  0
ARC
  8
APS_GEOMETRY
 10
25.09491
 20
34.034015
 40
8.375159
 50
51.23448
 51
71.601531
  0
ARC
  8
APS_GEOMETRY
 10
24.505257
 20
32.261293
 40
10.243375
 50
71.601531
 51
90.0
  0
ARC
  8
APS_GEOMETRY
 10
24.505257
 20
32.261293
 40
10.243375
 50
90.0
 51
108.398469
  0
ARC
  8
APS_GEOMETRY
 10
23.915603
 20
34.034015
 40
8.375159
 50
108.398469
 51
128.76552
  0
ARC
  8
APS_GEOMETRY
 10
23.010587
 20
35.161017
 40
6.929756
 50
128.76552
 51
152.714723
  0
ARC
  8
APS_GEOMETRY
 10
21.617346
 20
35.879669
 40
5.362089
 50
152.714723
 51
180.0
  0
ARC
  8
APS_GEOMETRY
 10
21.617346
 20
35.879669
 40
5.362089
 50
180.0
 51
207.285277
  0
ARC
  8
APS_GEOMETRY
 10
23.010587
 20
36.598321
 40
6.929756
 50
207.285277
 51
231.23448
  0
ARC
  8
APS_GEOMETRY
 10
23.915603
 20
37.725323
 40
8.375159
 50
231.23448
 51
251.601531
  0
ARC
  8
APS_GEOMETRY
 10
24.505257
 20
39.498044
 40
10.243375
 50
251.601531
 51
270.0
  0
ARC
  8
APS_GEOMETRY
 10
24.505257
 20
39.498044
 40
10.243375
 50
270.0
 51
288.398469
  0
ARC
  8
APS_GEOMETRY
 10
25.09491
 20
37.725323
 40
8.375159
 50
288.398469
 51
308.76552
  0
ARC
  8
APS_GEOMETRY
 10
25.999927
 20
36.598321
 40
6.929756
 50
308.76552
 51
332.714723
  0
ARC
  8
APS_GEOMETRY
 10
27.393168
 20
35.879669
 40
5.362089
 50
332.714723
 51
0.0
  0
CIRCLE
  8
APS_GEOMETRY
 10
18.332243
 20
43.080792
 40
0.125
  0
CIRCLE
  8
APS_GEOMETRY
 10
30.633447
 20
43.080792
 40
0.125
  0
CIRCLE
  8
APS_GEOMETRY
 10
34.585794
 20
38.346647
 40
0.125
  0
CIRCLE
  8
APS_GEOMETRY
 10
14.412027
 20
38.362681
 40
0.125
  0
CIRCLE
  8
APS_GEOMETRY
 10
33.044232
 20
30.745268
 40
0.125
  0
CIRCLE
  8
APS_GEOMETRY
 10
15.834939
 20
30.890091
 40
0.125
  0
CIRCLE
  8
APS_GEOMETRY
 10
24.5053
 20
44.7547
 40
0.6875
  0
CIRCLE
  8
APS_GEOMETRY
 10
26.5053
 20
44.754661
 40
0.6875
  0
CIRCLE
  8
APS_GEOMETRY
 10
22.5053
 20
44.754739
 40
0.6875
  0
ENDSEC
  0
EOF
