  0
SECTION
  2
ENTITIES
  0
LINE
  8
APS_GEOMETRY
 10
0.5
 11
14.75
 20
0.0
 21
0.0
  0
ARC
  8
APS_GEOMETRY
 10
14.75
 20
0.5
 40
0.5
 50
270.0
 51
0.0
  0
LINE
  8
APS_GEOMETRY
 10
15.25
 11
15.25
 20
0.5
 21
9.25
  0
ARC
  8
APS_GEOMETRY
 10
14.75
 20
9.25
 40
0.5
 50
0.0
 51
90.0
  0
LINE
  8
APS_GEOMETRY
 10
14.75
 11
0.5
 20
9.75
 21
9.75
  0
ARC
  8
APS_GEOMETRY
 10
0.5
 20
9.25
 40
0.5
 50
90.0
 51
180.0
  0
LINE
  8
APS_GEOMETRY
 10
0.0
 11
0.0
 20
9.25
 21
0.5
  0
ARC
  8
APS_GEOMETRY
 10
0.5
 20
0.5
 40
0.5
 50
180.0
 51
270.0
  0
CIRCLE
  8
APS_GEOMETRY
 10
2.699824
 20
11.933162
 40
0.125
  0
CIRCLE
  8
APS_GEOMETRY
 10
12.127941
 20
11.937259
 40
0.125
  0
CIRCLE
  8
APS_GEOMETRY
 10
17.455816
 20
8.034109
 40
0.125
  0
CIRCLE
  8
APS_GEOMETRY
 10
17.45217
 20
2.581362
 40
0.125
  0
CIRCLE
  8
APS_GEOMETRY
 10
-2.188153
 20
2.494119
 40
0.125
  0
CIRCLE
  8
APS_GEOMETRY
 10
-2.167384
 20
8.026422
 40
0.125
  0
CIRCLE
  8
APS_GEOMETRY
 10
7.625
 20
12.25
 40
0.6875
  0
ENDSEC
  0
EOF
