  0
SECTION
  2
ENTITIES
  0
LINE
  8
APS_GEOMETRY
 10
0.875
 11
17.125
 20
0.0
 21
0.0
  0
ARC
  8
APS_GEOMETRY
 10
17.125
 20
0.875
 40
0.875
 50
270.0
 51
0.0
  0
LINE
  8
APS_GEOMETRY
 10
18.0
 11
18.0
 20
0.875
 21
10.625
  0
ARC
  8
APS_GEOMETRY
 10
17.125
 20
10.625
 40
0.875
 50
0.0
 51
90.0
  0
LINE
  8
APS_GEOMETRY
 10
17.125
 11
0.875
 20
11.5
 21
11.5
  0
ARC
  8
APS_GEOMETRY
 10
0.875
 20
10.625
 40
0.875
 50
90.0
 51
180.0
  0
LINE
  8
APS_GEOMETRY
 10
0.0
 11
0.0
 20
10.625
 21
0.875
  0
ARC
  8
APS_GEOMETRY
 10
0.875
 20
0.875
 40
0.875
 50
180.0
 51
270.0
  0
CIRCLE
  8
APS_GEOMETRY
 10
2.963321
 20
13.723334
 40
0.125
  0
CIRCLE
  8
APS_GEOMETRY
 10
14.412004
 20
13.723334
 40
0.125
  0
CIRCLE
  8
APS_GEOMETRY
 10
20.280354
 20
9.511083
 40
0.125
  0
CIRCLE
  8
APS_GEOMETRY
 10
20.280354
 20
2.490664
 40
0.125
  0
CIRCLE
  8
APS_GEOMETRY
 10
-2.220988
 20
2.490664
 40
0.125
  0
CIRCLE
  8
APS_GEOMETRY
 10
-2.220988
 20
9.47508
 40
0.125
  0
CIRCLE
  8
APS_GEOMETRY
 10
9.0
 20
14.0
 40
0.6875
  0
ENDSEC
  0
EOF
