  0
SECTION
  2
ENTITIES
  0
CIRCLE
  8
APS_GEOMETRY
 10
20.022677
 20
7.455949
 40
0.125
  0
CIRCLE
  8
APS_GEOMETRY
 10
20.022677
 20
2.370254
 40
0.125
  0
CIRCLE
  8
APS_GEOMETRY
 10
-2.22352
 20
2.370254
 40
0.125
  0
CIRCLE
  8
APS_GEOMETRY
 10
-2.22352
 20
7.455949
 40
0.125
  0
CIRCLE
  8
APS_GEOMETRY
 10
2.97596
 20
12.739151
 40
0.125
  0
CIRCLE
  8
APS_GEOMETRY
 10
14.034234
 20
12.739151
 40
0.125
  0
LINE
  8
APS_GEOMETRY
 10
16.875
 11
0.875
 20
0.0
 21
0.0
  0
ARC
  8
APS_GEOMETRY
 10
0.875
 20
0.875
 40
0.875
 50
180.0
 51
270.0
  0
LINE
  8
APS_GEOMETRY
 10
0.0
 11
0.0
 20
0.875
 21
9.625
  0
ARC
  8
APS_GEOMETRY
 10
0.875
 20
9.625
 40
0.875
 50
90.0
 51
180.0
  0
LINE
  8
APS_GEOMETRY
 10
0.875
 11
16.875
 20
10.5
 21
10.5
  0
ARC
  8
APS_GEOMETRY
 10
16.875
 20
9.625
 40
0.875
 50
0.0
 51
90.0
  0
LINE
  8
APS_GEOMETRY
 10
17.75
 11
17.75
 20
9.625
 21
0.875
  0
ARC
  8
APS_GEOMETRY
 10
16.875
 20
0.875
 40
0.875
 50
270.0
 51
0.0
  0
CIRCLE
  8
APS_GEOMETRY
 10
8.875
 20
13.0
 40
0.6875
  0
ENDSEC
  0
EOF
