  0
SECTION
  2
ENTITIES
  0
LINE
  8
APS_GEOMETRY
 10
0.875
 11
12.875
 20
0.0
 21
0.0
  0
ARC
  8
APS_GEOMETRY
 10
12.875
 20
0.875
 40
0.875
 50
270.0
 51
0.0
  0
LINE
  8
APS_GEOMETRY
 10
13.75
 11
13.75
 20
0.875
 21
9.875
  0
ARC
  8
APS_GEOMETRY
 10
12.875
 20
9.875
 40
0.875
 50
0.0
 51
90.0
  0
LINE
  8
APS_GEOMETRY
 10
12.875
 11
0.875
 20
10.75
 21
10.75
  0
ARC
  8
APS_GEOMETRY
 10
0.875
 20
9.875
 40
0.875
 50
90.0
 51
180.0
  0
LINE
  8
APS_GEOMETRY
 10
0.0
 11
0.0
 20
9.875
 21
0.875
  0
ARC
  8
APS_GEOMETRY
 10
0.875
 20
0.875
 40
0.875
 50
180.0
 51
270.0
  0
CIRCLE
  8
APS_GEOMETRY
 10
2.201006
 20
12.968829
 40
0.125
  0
CIRCLE
  8
APS_GEOMETRY
 10
11.238375
 20
12.968829
 40
0.125
  0
CIRCLE
  8
APS_GEOMETRY
 10
16.026831
 20
8.146651
 40
0.125
  0
CIRCLE
  8
APS_GEOMETRY
 10
16.026831
 20
2.717486
 40
0.125
  0
CIRCLE
  8
APS_GEOMETRY
 10
11.272096
 20
-2.2733
 40
0.125
  0
CIRCLE
  8
APS_GEOMETRY
 10
2.234728
 20
-2.2733
 40
0.125
  0
CIRCLE
  8
APS_GEOMETRY
 10
-2.216513
 20
2.717486
 40
0.125
  0
CIRCLE
  8
APS_GEOMETRY
 10
-2.216513
 20
8.146651
 40
0.125
  0
ENDSEC
  0
EOF
