  0
SECTION
  2
ENTITIES
  0
ARC
  8
APS_GEOMETRY
 10
2.916815
 20
10.856515
 40
4.125
 50
90.0
 51
180.0
  0
LINE
  8
APS_GEOMETRY
 10
2.916815
 11
12.968638
 20
14.981515
 21
14.981515
  0
ARC
  8
APS_GEOMETRY
 10
12.968638
 20
15.731515
 40
0.75
 50
270.0
 51
329.137161
  0
ARC
  8
APS_GEOMETRY
 10
17.153328
 20
13.230715
 40
4.125
 50
90.000008
 51
149.137161
  0
LINE
  8
APS_GEOMETRY
 10
17.153327
 11
23.979315
 20
17.355715
 21
17.355715
  0
ARC
  8
APS_GEOMETRY
 10
23.979315
 20
12.980715
 40
4.375
 50
0.0
 51
90.0
  0
LINE
  8
APS_GEOMETRY
 10
28.354315
 11
28.354315
 20
12.980715
 21
3.166815
  0
ARC
  8
APS_GEOMETRY
 10
23.979315
 20
3.166815
 40
4.375
 50
270.0
 51
0.0
  0
LINE
  8
APS_GEOMETRY
 10
23.979315
 11
2.916815
 20
-1.208185
 21
-1.208185
  0
ARC
  8
APS_GEOMETRY
 10
2.916815
 20
2.916815
 40
4.125
 50
180.0
 51
270.0
  0
LINE
  8
APS_GEOMETRY
 10
-1.208185
 11
-1.208185
 20
2.916815
 21
10.856515
  0
CIRCLE
  8
CONSTRUCTION
 10
2.570861
 20
6.717072
 40
0.05
  0
CIRCLE
  8
CONSTRUCTION
 10
20.76009
 20
12.807167
 40
0.05
  0
CIRCLE
  8
CONSTRUCTION
 10
8.098917
 20
11.529563
 40
0.05
  0
ARC
  8
CONSTRUCTION
 10
13.391788
 20
-1.036625
 40
0.182363
 50
121.026839
 51
130.045456
  0
ARC
  8
CONSTRUCTION
 10
13.335851
 20
-0.973687
 40
0.09822
 50
128.687518
 51
231.311599
  0
ARC
  8
CONSTRUCTION
 10
13.389454
 20
-0.908447
 40
0.182653
 50
230.979259
 51
309.021901
  0
ARC
  8
CONSTRUCTION
 10
13.44306
 20
-0.973684
 40
0.09822
 50
308.687906
 51
51.312336
  0
ARC
  8
CONSTRUCTION
 10
13.397351
 20
-1.03775
 40
0.176853
 50
52.727273
 51
65.346381
  0
LINE
  8
CONSTRUCTION
 10
13.432351
 11
13.432352
 20
-0.84386
 21
-0.699859
  0
ARC
  8
CONSTRUCTION
 10
13.429094
 20
-0.788825
 40
0.089025
 50
87.902951
 51
120.171303
  0
ARC
  8
CONSTRUCTION
 10
13.417265
 20
-0.768967
 40
0.065913
 50
119.957157
 51
179.906258
  0
ARC
  8
CONSTRUCTION
 10
13.421951
 20
-0.768728
 40
0.070599
 50
180.106825
 51
243.410314
  0
ARC
  8
CONSTRUCTION
 10
13.444351
 20
-0.723938
 40
0.120678
 50
243.418387
 51
296.581508
  0
ARC
  8
CONSTRUCTION
 10
13.466752
 20
-0.768727
 40
0.070599
 50
296.588653
 51
359.892374
  0
ARC
  8
CONSTRUCTION
 10
13.46017
 20
-0.769145
 40
0.077181
 50
0.211677
 51
55.08143
  0
LINE
  8
CONSTRUCTION
 10
13.542005
 11
13.404004
 20
-0.540856
 21
-0.540853
  0
ARC
  8
CONSTRUCTION
 10
13.403737
 20
-0.591586
 40
0.050733
 50
89.698802
 51
180.305782
  0
ARC
  8
CONSTRUCTION
 10
13.440269
 20
-0.591924
 40
0.087264
 50
179.955293
 51
243.260248
  0
LINE
  8
CONSTRUCTION
 10
13.432351
 11
13.432352
 20
-0.37504
 21
-0.231039
  0
ARC
  8
CONSTRUCTION
 10
13.429094
 20
-0.320005
 40
0.089025
 50
87.902951
 51
120.171303
  0
ARC
  8
CONSTRUCTION
 10
13.417265
 20
-0.300147
 40
0.065913
 50
119.957157
 51
179.906258
  0
ARC
  8
CONSTRUCTION
 10
13.421951
 20
-0.299908
 40
0.070599
 50
180.106825
 51
243.410314
  0
ARC
  8
CONSTRUCTION
 10
13.444353
 20
-0.255118
 40
0.120678
 50
243.417609
 51
296.580699
  0
ARC
  8
CONSTRUCTION
 10
13.466752
 20
-0.299909
 40
0.070599
 50
296.588678
 51
359.89276
  0
ARC
  8
CONSTRUCTION
 10
13.46017
 20
-0.300325
 40
0.077181
 50
0.210933
 51
55.081423
  0
ARC
  8
CONSTRUCTION
 10
13.431479
 20
-0.084969
 40
0.078477
 50
179.6195
 51
260.8532
  0
LINE
  8
CONSTRUCTION
 10
13.542005
 11
13.404004
 20
0.36637
 21
0.366373
  0
ARC
  8
CONSTRUCTION
 10
13.403737
 20
0.31564
 40
0.050733
 50
89.698802
 51
180.305782
  0
ARC
  8
CONSTRUCTION
 10
13.440269
 20
0.315302
 40
0.087264
 50
179.955293
 51
243.260248
  0
LINE
  8
CONSTRUCTION
 10
13.432351
 11
13.432352
 20
0.397186
 21
0.541187
  0
ARC
  8
CONSTRUCTION
 10
13.429094
 20
0.452221
 40
0.089025
 50
87.902951
 51
120.171303
  0
ARC
  8
CONSTRUCTION
 10
13.417265
 20
0.472079
 40
0.065913
 50
119.957157
 51
179.906258
  0
ARC
  8
CONSTRUCTION
 10
13.421951
 20
0.472318
 40
0.070599
 50
180.106825
 51
243.410314
  0
ARC
  8
CONSTRUCTION
 10
13.444353
 20
0.517108
 40
0.120678
 50
243.417609
 51
296.580699
  0
ARC
  8
CONSTRUCTION
 10
13.466752
 20
0.472317
 40
0.070599
 50
296.588678
 51
359.89276
  0
ARC
  8
CONSTRUCTION
 10
13.46017
 20
0.471901
 40
0.077181
 50
0.210933
 51
55.081423
  0
LINE
  8
CONSTRUCTION
 10
1.968716
 11
1.635383
 20
6.66688
 21
6.666883
  0
ARC
  8
CONSTRUCTION
 10
1.811622
 20
6.667118
 40
0.176239
 50
121.81371
 51
180.076556
  0
LINE
  8
CONSTRUCTION
 10
1.718716
 11
1.907604
 20
6.81688
 21
6.933547
  0
ARC
  8
CONSTRUCTION
 10
1.84612
 20
7.039102
 40
0.122156
 50
300.220549
 51
59.778705
  0
ARC
  8
CONSTRUCTION
 10
1.813156
 20
6.969144
 40
0.199311
 50
61.713556
 51
118.283704
  0
ARC
  8
CONSTRUCTION
 10
1.774639
 20
7.039575
 40
0.119039
 50
118.021047
 51
169.471729
  0
ARC
  8
CONSTRUCTION
 10
2.227603
 20
6.824381
 40
0.1637
 50
218.687092
 51
321.311843
  0
ARC
  8
CONSTRUCTION
 10
2.11887
 20
6.91372
 40
0.304422
 50
320.979181
 51
39.021833
  0
ARC
  8
CONSTRUCTION
 10
2.2276
 20
7.003063
 40
0.1637
 50
38.688358
 51
141.311414
  0
ARC
  8
CONSTRUCTION
 10
2.202651
 20
7.022055
 40
0.132356
 50
140.97766
 51
219.021779
  0
ARC
  8
CONSTRUCTION
 10
2.235935
 20
7.047722
 40
0.174378
 50
218.688021
 51
321.311974
  0
ARC
  8
CONSTRUCTION
 10
2.247673
 20
7.03993
 40
0.16035
 50
320.863556
 51
349.585998
  0
ARC
  8
CONSTRUCTION
 10
2.89552
 20
6.85026
 40
0.186567
 50
202.7274
 51
247.2726
  0
ARC
  8
CONSTRUCTION
 10
2.898439
 20
6.853676
 40
0.19085
 50
246.860655
 51
293.141257
  0
ARC
  8
CONSTRUCTION
 10
2.902481
 20
6.845989
 40
0.182194
 50
292.922291
 51
357.893331
  0
ARC
  8
CONSTRUCTION
 10
2.920525
 20
6.845038
 40
0.164128
 50
357.993486
 51
71.191211
  0
ARC
  8
CONSTRUCTION
 10
2.89843
 20
6.779818
 40
0.232989
 50
71.218855
 51
108.775129
  0
ARC
  8
CONSTRUCTION
 10
2.883682
 20
6.819784
 40
0.190406
 50
108.444359
 51
138.941371
  0
LINE
  8
CONSTRUCTION
 10
2.740109
 11
2.778998
 20
6.944849
 21
7.167071
  0
LINE
  8
CONSTRUCTION
 10
2.778998
 11
3.028998
 20
7.167071
 21
7.167071
  0
ARC
  8
CONSTRUCTION
 10
3.383814
 20
7.003943
 40
0.1637
 50
38.687092
 51
141.311843
  0
ARC
  8
CONSTRUCTION
 10
3.492548
 20
6.914605
 40
0.304422
 50
140.979452
 51
219.022012
  0
ARC
  8
CONSTRUCTION
 10
3.383819
 20
6.825262
 40
0.1637
 50
218.688413
 51
321.311412
  0
ARC
  8
CONSTRUCTION
 10
3.408768
 20
6.806269
 40
0.132356
 50
320.978002
 51
39.022121
  0
ARC
  8
CONSTRUCTION
 10
3.375482
 20
6.780603
 40
0.174378
 50
38.68781
 51
141.312028
  0
ARC
  8
CONSTRUCTION
 10
3.363745
 20
6.788396
 40
0.16035
 50
140.864074
 51
169.586213
  0
ARC
  8
CONSTRUCTION
 10
20.353972
 20
12.452143
 40
0.216644
 50
25.9876
 51
43.9964
  0
ARC
  8
CONSTRUCTION
 10
20.432047
 20
12.527702
 40
0.107994
 50
43.930998
 51
136.073059
  0
ARC
  8
CONSTRUCTION
 10
20.500854
 20
12.480399
 40
0.190856
 50
140.179003
 51
219.819358
  0
ARC
  8
CONSTRUCTION
 10
20.429263
 20
12.421477
 40
0.098139
 50
220.163164
 51
319.839621
  0
ARC
  8
CONSTRUCTION
 10
20.374216
 20
12.467576
 40
0.169939
 50
319.930802
 51
6.21048
  0
ARC
  8
CONSTRUCTION
 10
20.712098
 20
12.504354
 40
0.169939
 50
139.934852
 51
186.213557
  0
ARC
  8
CONSTRUCTION
 10
20.676489
 20
12.543826
 40
0.117506
 50
36.509456
 51
143.491083
  0
ARC
  8
CONSTRUCTION
 10
20.591396
 20
12.480406
 40
0.223633
 50
323.400504
 51
36.598635
  0
ARC
  8
CONSTRUCTION
 10
20.676488
 20
12.416984
 40
0.117506
 50
216.510541
 51
323.48965
  0
ARC
  8
CONSTRUCTION
 10
20.86728
 20
12.561643
 40
0.356933
 50
202.534903
 51
216.952434
  0
ARC
  8
CONSTRUCTION
 10
20.626902
 20
13.131826
 40
0.186567
 50
292.7274
 51
337.2726
  0
ARC
  8
CONSTRUCTION
 10
20.623486
 20
13.134745
 40
0.19085
 50
336.860655
 51
23.141257
  0
ARC
  8
CONSTRUCTION
 10
20.631173
 20
13.138787
 40
0.182194
 50
22.922291
 51
87.893331
  0
ARC
  8
CONSTRUCTION
 10
20.632124
 20
13.156831
 40
0.164128
 50
87.993486
 51
161.191211
  0
ARC
  8
CONSTRUCTION
 10
20.697344
 20
13.134736
 40
0.232989
 50
161.218855
 51
198.775129
  0
ARC
  8
CONSTRUCTION
 10
20.657378
 20
13.119988
 40
0.190406
 50
198.444359
 51
228.941371
  0
LINE
  8
CONSTRUCTION
 10
20.532313
 11
20.310091
 20
12.976415
 21
13.015304
  0
LINE
  8
CONSTRUCTION
 10
20.310091
 11
20.310091
 20
13.015304
 21
13.265304
  0
ARC
  8
CONSTRUCTION
 10
20.473219
 20
13.620121
 40
0.1637
 50
128.687092
 51
231.311843
  0
ARC
  8
CONSTRUCTION
 10
20.562558
 20
13.728854
 40
0.304422
 50
230.979181
 51
309.021833
  0
ARC
  8
CONSTRUCTION
 10
20.651901
 20
13.620124
 40
0.1637
 50
308.688358
 51
51.311638
  0
ARC
  8
CONSTRUCTION
 10
20.670893
 20
13.645074
 40
0.132356
 50
50.978002
 51
129.022121
  0
ARC
  8
CONSTRUCTION
 10
20.69656
 20
13.611789
 40
0.174378
 50
128.688073
 51
231.311502
  0
ARC
  8
CONSTRUCTION
 10
20.688767
 20
13.600051
 40
0.16035
 50
230.86333
 51
259.586002
  0
ARC
  8
CONSTRUCTION
 10
7.812046
 20
11.228305
 40
0.1637
 50
128.687092
 51
231.311843
  0
ARC
  8
CONSTRUCTION
 10
7.901385
 20
11.337038
 40
0.304422
 50
230.979181
 51
309.021833
  0
ARC
  8
CONSTRUCTION
 10
7.990728
 20
11.228308
 40
0.1637
 50
308.688358
 51
51.311638
  0
ARC
  8
CONSTRUCTION
 10
8.00972
 20
11.253257
 40
0.132356
 50
50.978002
 51
129.022121
  0
ARC
  8
CONSTRUCTION
 10
8.035387
 20
11.219973
 40
0.174378
 50
128.688073
 51
231.311502
  0
ARC
  8
CONSTRUCTION
 10
8.027594
 20
11.208235
 40
0.16035
 50
230.86333
 51
259.586002
  0
ARC
  8
CONSTRUCTION
 10
7.692799
 20
12.107955
 40
0.216644
 50
25.9876
 51
43.9964
  0
ARC
  8
CONSTRUCTION
 10
7.770874
 20
12.183514
 40
0.107994
 50
43.930629
 51
136.072359
  0
ARC
  8
CONSTRUCTION
 10
7.839681
 20
12.136211
 40
0.190856
 50
140.178597
 51
219.819304
  0
ARC
  8
CONSTRUCTION
 10
7.768089
 20
12.077289
 40
0.098139
 50
220.163162
 51
319.839619
  0
ARC
  8
CONSTRUCTION
 10
7.713043
 20
12.123389
 40
0.169939
 50
319.93055
 51
6.210424
  0
ARC
  8
CONSTRUCTION
 10
8.050925
 20
12.160166
 40
0.169939
 50
139.934903
 51
186.213557
  0
ARC
  8
CONSTRUCTION
 10
8.015316
 20
12.199639
 40
0.117506
 50
36.509148
 51
143.490855
  0
ARC
  8
CONSTRUCTION
 10
7.930223
 20
12.136218
 40
0.223633
 50
323.400504
 51
36.598635
  0
ARC
  8
CONSTRUCTION
 10
8.015315
 20
12.072796
 40
0.117506
 50
216.510541
 51
323.48965
  0
ARC
  8
CONSTRUCTION
 10
8.206108
 20
12.217454
 40
0.356933
 50
202.534776
 51
216.952333
  0
LINE
  8
CONSTRUCTION
 10
13.542005
 11
13.353005
 20
-0.669856
 21
-0.669856
  0
LINE
  8
CONSTRUCTION
 10
13.272005
 11
13.542005
 20
-0.445917
 21
-0.445917
  0
LINE
  8
CONSTRUCTION
 10
13.356005
 11
13.356005
 20
-0.481917
 21
-0.406917
  0
LINE
  8
CONSTRUCTION
 10
13.353005
 11
13.542005
 20
-0.162447
 21
-0.162447
  0
LINE
  8
CONSTRUCTION
 10
13.542005
 11
13.542005
 20
-0.201036
 21
-0.123858
  0
LINE
  8
CONSTRUCTION
 10
13.542005
 11
13.542005
 20
-0.054448
 21
-0.007128
  0
LINE
  8
CONSTRUCTION
 10
13.542005
 11
13.272005
 20
-0.007128
 21
-0.007128
  0
LINE
  8
CONSTRUCTION
 10
13.272005
 11
13.272005
 20
-0.007128
 21
-0.029169
  0
LINE
  8
CONSTRUCTION
 10
13.542005
 11
13.542005
 20
-0.007128
 21
0.040191
  0
LINE
  8
CONSTRUCTION
 10
13.269005
 11
13.293005
 20
0.138781
 21
0.138781
  0
LINE
  8
CONSTRUCTION
 10
13.542005
 11
13.353005
 20
0.138781
 21
0.138781
  0
LINE
  8
CONSTRUCTION
 10
13.542005
 11
13.542005
 20
0.100191
 21
0.17737
  0
LINE
  8
CONSTRUCTION
 10
13.542005
 11
13.353005
 20
0.23737
 21
0.23737
  0
LINE
  8
CONSTRUCTION
 10
3.691128
 11
3.666128
 20
7.144408
 21
7.144408
  0
LINE
  8
CONSTRUCTION
 10
3.666128
 11
3.666128
 20
7.144408
 21
7.169408
  0
LINE
  8
CONSTRUCTION
 10
3.666128
 11
3.691128
 20
7.169408
 21
7.169408
  0
LINE
  8
CONSTRUCTION
 10
3.691128
 11
3.691128
 20
7.169408
 21
7.109408
  0
LINE
  8
CONSTRUCTION
 10
3.691128
 11
3.686128
 20
7.109408
 21
7.074408
  0
LINE
  8
CONSTRUCTION
 10
3.686128
 11
3.676128
 20
7.074408
 21
7.049408
  0
LINE
  8
CONSTRUCTION
 10
3.812579
 11
3.787579
 20
7.143973
 21
7.143973
  0
LINE
  8
CONSTRUCTION
 10
3.787579
 11
3.787579
 20
7.143973
 21
7.168973
  0
LINE
  8
CONSTRUCTION
 10
3.787579
 11
3.812579
 20
7.168973
 21
7.168973
  0
LINE
  8
CONSTRUCTION
 10
3.812579
 11
3.812579
 20
7.168973
 21
7.108973
  0
LINE
  8
CONSTRUCTION
 10
3.812579
 11
3.807579
 20
7.108973
 21
7.073973
  0
LINE
  8
CONSTRUCTION
 10
3.807579
 11
3.797579
 20
7.073973
 21
7.048973
  0
LINE
  8
CONSTRUCTION
 10
20.81028
 11
20.81028
 20
12.024604
 21
12.196166
  0
LINE
  8
CONSTRUCTION
 10
20.81028
 11
20.31028
 20
12.110385
 21
12.110385
  0
LINE
  8
CONSTRUCTION
 10
20.31028
 11
20.396061
 20
12.110385
 21
12.024604
  0
LINE
  8
CONSTRUCTION
 10
20.332754
 11
20.332754
 20
13.927434
 21
13.902434
  0
LINE
  8
CONSTRUCTION
 10
20.332754
 11
20.307754
 20
13.902434
 21
13.902434
  0
LINE
  8
CONSTRUCTION
 10
20.307754
 11
20.307754
 20
13.902434
 21
13.927434
  0
LINE
  8
CONSTRUCTION
 10
20.307754
 11
20.367754
 20
13.927434
 21
13.927434
  0
LINE
  8
CONSTRUCTION
 10
20.367754
 11
20.402754
 20
13.927434
 21
13.922434
  0
LINE
  8
CONSTRUCTION
 10
20.402754
 11
20.427754
 20
13.922434
 21
13.912434
  0
LINE
  8
CONSTRUCTION
 10
20.333189
 11
20.333189
 20
14.048885
 21
14.023885
  0
LINE
  8
CONSTRUCTION
 10
20.333189
 11
20.308189
 20
14.023885
 21
14.023885
  0
LINE
  8
CONSTRUCTION
 10
20.308189
 11
20.308189
 20
14.023885
 21
14.048885
  0
LINE
  8
CONSTRUCTION
 10
20.308189
 11
20.368189
 20
14.048885
 21
14.048885
  0
LINE
  8
CONSTRUCTION
 10
20.368189
 11
20.403189
 20
14.048885
 21
14.043885
  0
LINE
  8
CONSTRUCTION
 10
20.403189
 11
20.428189
 20
14.043885
 21
14.033885
  0
LINE
  8
CONSTRUCTION
 10
8.149106
 11
8.149106
 20
10.755855
 21
10.927418
  0
LINE
  8
CONSTRUCTION
 10
8.149106
 11
7.649106
 20
10.841637
 21
10.841637
  0
LINE
  8
CONSTRUCTION
 10
7.649106
 11
7.734888
 20
10.841637
 21
10.755855
  0
LINE
  8
CONSTRUCTION
 10
8.149106
 11
7.649106
 20
11.766197
 21
11.766197
  0
LINE
  8
CONSTRUCTION
 10
7.649106
 11
7.734888
 20
11.766197
 21
11.680416
  0
LINE
  8
CONSTRUCTION
 10
7.671581
 11
7.671581
 20
12.469035
 21
12.444035
  0
LINE
  8
CONSTRUCTION
 10
7.671581
 11
7.646581
 20
12.444035
 21
12.444035
  0
LINE
  8
CONSTRUCTION
 10
7.646581
 11
7.646581
 20
12.444035
 21
12.469035
  0
LINE
  8
CONSTRUCTION
 10
7.646581
 11
7.706581
 20
12.469035
 21
12.469035
  0
LINE
  8
CONSTRUCTION
 10
7.706581
 11
7.741581
 20
12.469035
 21
12.464035
  0
LINE
  8
CONSTRUCTION
 10
7.741581
 11
7.766581
 20
12.464035
 21
12.454035
  0
LINE
  8
CONSTRUCTION
 10
7.672015
 11
7.672015
 20
12.590486
 21
12.565486
  0
LINE
  8
CONSTRUCTION
 10
7.672015
 11
7.647015
 20
12.565486
 21
12.565486
  0
LINE
  8
CONSTRUCTION
 10
7.647015
 11
7.647015
 20
12.565486
 21
12.590486
  0
LINE
  8
CONSTRUCTION
 10
7.647015
 11
7.707015
 20
12.590486
 21
12.590486
  0
LINE
  8
CONSTRUCTION
 10
7.707015
 11
7.742015
 20
12.590486
 21
12.585486
  0
LINE
  8
CONSTRUCTION
 10
7.742015
 11
7.767015
 20
12.585486
 21
12.575486
  0
LINE
  8
APS_GEOMETRY
 10
7.942727
 11
7.942727
 20
14.981515
 21
12.998114
  0
LINE
  8
APS_GEOMETRY
 10
7.942727
 11
7.942727
 20
10.041926
 21
-1.208185
  0
LINE
  8
APS_GEOMETRY
 10
20.566321
 11
20.566321
 20
17.355715
 21
14.203798
  0
LINE
  8
APS_GEOMETRY
 10
20.566321
 11
20.566321
 20
11.67162
 21
-1.208185
  0
LINE
  8
APS_GEOMETRY
 10
27.072908
 11
25.658694
 20
16.074308
 21
14.660095
  0
LINE
  8
APS_GEOMETRY
 10
27.072908
 11
25.658694
 20
0.073223
 21
1.487437
  0
LINE
  8
APS_GEOMETRY
 10
0.0
 11
1.414213
 20
0.0
 21
1.414214
  0
LINE
  8
APS_GEOMETRY
 10
0.0
 11
1.414213
 20
13.773331
 21
12.359118
  0
LINE
  8
APS_GEOMETRY
 10
13.573065
 11
13.573065
 20
-1.208185
 21
1.542899
  0
LINE
  8
APS_GEOMETRY
 10
28.354315
 11
4.203395
 20
6.886665
 21
6.886665
  0
LINE
  8
APS_GEOMETRY
 10
1.089292
 11
-1.208185
 20
6.886665
 21
6.886665
  0
LINE
  8
CONSTRUCTION
 10
24.800425
 11
24.901777
 20
1.021192
 21
1.122544
  0
ARC
  8
CONSTRUCTION
 10
24.847565
 20
1.176755
 40
0.076667
 50
315.0
 51
135.0
  0
LINE
  8
CONSTRUCTION
 10
24.793354
 11
24.692002
 20
1.230967
 21
1.129615
  0
LINE
  8
CONSTRUCTION
 10
24.692002
 11
24.904134
 20
1.129615
 21
0.917483
  0
LINE
  8
CONSTRUCTION
 10
24.894706
 11
25.045555
 20
1.115472
 21
1.058904
  0
LINE
  8
CONSTRUCTION
 10
25.415987
 11
25.23921
 20
1.570903
 21
1.394126
  0
LINE
  8
CONSTRUCTION
 10
25.23921
 11
25.227425
 20
1.394126
 21
1.405911
  0
LINE
  8
CONSTRUCTION
 10
25.227425
 11
25.21564
 20
1.405911
 21
1.653399
  0
LINE
  8
CONSTRUCTION
 10
25.21564
 11
25.227425
 20
1.653399
 21
1.665184
  0
LINE
  8
CONSTRUCTION
 10
25.227425
 11
25.439557
 20
1.665184
 21
1.453052
  0
CIRCLE
  8
CONSTRUCTION
 10
25.52241
 20
1.578346
 40
0.03
  0
ARC
  8
CONSTRUCTION
 10
25.603541
 20
1.752566
 40
0.093543
 50
253.751948
 51
303.48402
  0
ARC
  8
CONSTRUCTION
 10
25.556911
 20
1.827226
 40
0.181553
 50
302.758312
 51
331.480382
  0
ARC
  8
CONSTRUCTION
 10
25.641955
 20
1.782021
 40
0.08525
 50
330.885172
 51
10.197039
  0
ARC
  8
CONSTRUCTION
 10
25.642042
 20
1.782878
 40
0.085017
 50
9.638795
 51
76.268726
  0
ARC
  8
CONSTRUCTION
 10
25.640731
 20
1.780185
 40
0.087947
 50
75.855291
 51
120.402309
  0
ARC
  8
CONSTRUCTION
 10
25.678411
 20
1.717282
 40
0.16127
 50
120.6389
 51
149.3611
  0
ARC
  8
CONSTRUCTION
 10
25.376241
 20
1.878932
 40
0.18171
 50
334.068075
 51
30.63788
  0
LINE
  8
CONSTRUCTION
 10
25.532585
 11
25.402948
 20
1.971533
 21
1.841896
  0
LINE
  8
CONSTRUCTION
 10
25.596242
 11
25.749449
 20
2.034078
 21
2.187284
  0
LINE
  8
CONSTRUCTION
 10
25.749449
 11
25.761232
 20
2.187284
 21
2.175499
  0
ARC
  8
CONSTRUCTION
 10
26.099134
 20
2.126895
 40
0.34138
 50
171.8148
 51
226.6842
  0
ARC
  8
CONSTRUCTION
 10
25.994216
 20
2.163166
 40
0.11194
 50
247.7274
 51
292.2726
  0
ARC
  8
CONSTRUCTION
 10
25.994006
 20
2.165854
 40
0.11451
 50
291.860287
 51
338.140726
  0
ARC
  8
CONSTRUCTION
 10
25.998982
 20
2.164307
 40
0.109317
 50
337.922067
 51
42.893283
  0
ARC
  8
CONSTRUCTION
 10
26.00704
 20
2.171559
 40
0.098477
 50
42.993348
 51
116.191207
  0
ARC
  8
CONSTRUCTION
 10
26.025337
 20
2.134515
 40
0.139793
 50
116.219129
 51
153.775441
  0
ARC
  8
CONSTRUCTION
 10
26.002123
 20
2.145213
 40
0.114243
 50
153.443904
 51
183.941081
  0
LINE
  8
CONSTRUCTION
 10
25.88815
 11
25.810368
 20
2.137361
 21
2.248142
  0
LINE
  8
CONSTRUCTION
 10
25.810368
 11
25.916434
 20
2.248142
 21
2.354208
  0
LINE
  8
CONSTRUCTION
 10
26.014777
 11
26.00417
 20
2.43332
 21
2.422713
  0
LINE
  8
CONSTRUCTION
 10
26.00417
 11
25.993564
 20
2.422713
 21
2.43332
  0
LINE
  8
CONSTRUCTION
 10
25.993564
 11
26.00417
 20
2.43332
 21
2.443926
  0
LINE
  8
CONSTRUCTION
 10
26.00417
 11
26.029626
 20
2.443926
 21
2.41847
  0
LINE
  8
CONSTRUCTION
 10
26.029626
 11
26.042354
 20
2.41847
 21
2.4015
  0
LINE
  8
CONSTRUCTION
 10
26.042354
 11
26.048718
 20
2.4015
 21
2.386651
  0
LINE
  8
CONSTRUCTION
 10
26.066488
 11
26.055882
 20
2.484662
 21
2.474056
  0
LINE
  8
CONSTRUCTION
 10
26.055882
 11
26.045275
 20
2.474056
 21
2.484662
  0
LINE
  8
CONSTRUCTION
 10
26.045275
 11
26.055882
 20
2.484662
 21
2.495269
  0
LINE
  8
CONSTRUCTION
 10
26.055882
 11
26.081338
 20
2.495269
 21
2.469813
  0
LINE
  8
CONSTRUCTION
 10
26.081338
 11
26.094066
 20
2.469813
 21
2.452843
  0
LINE
  8
CONSTRUCTION
 10
26.094066
 11
26.10043
 20
2.452843
 21
2.437993
  0
LINE
  8
CONSTRUCTION
 10
24.819439
 11
24.920791
 20
15.056133
 21
14.954781
  0
ARC
  8
CONSTRUCTION
 10
24.975002
 20
15.008992
 40
0.076667
 50
225.0
 51
45.0
  0
LINE
  8
CONSTRUCTION
 10
25.029214
 11
24.927862
 20
15.063204
 21
15.164556
  0
LINE
  8
CONSTRUCTION
 10
24.927862
 11
24.71573
 20
15.164556
 21
14.952424
  0
LINE
  8
CONSTRUCTION
 10
24.91372
 11
24.857151
 20
14.961852
 21
14.811002
  0
LINE
  8
CONSTRUCTION
 10
25.36915
 11
25.192373
 20
14.44057
 21
14.617347
  0
LINE
  8
CONSTRUCTION
 10
25.192373
 11
25.204158
 20
14.617347
 21
14.629132
  0
LINE
  8
CONSTRUCTION
 10
25.204158
 11
25.451646
 20
14.629132
 21
14.640917
  0
LINE
  8
CONSTRUCTION
 10
25.451646
 11
25.463431
 20
14.640917
 21
14.629132
  0
LINE
  8
CONSTRUCTION
 10
25.463431
 11
25.251299
 20
14.629132
 21
14.417
  0
CIRCLE
  8
CONSTRUCTION
 10
25.376593
 20
14.334148
 40
0.03
  0
ARC
  8
CONSTRUCTION
 10
25.550813
 20
14.253016
 40
0.093543
 50
163.751948
 51
213.48402
  0
ARC
  8
CONSTRUCTION
 10
25.625473
 20
14.299646
 40
0.181553
 50
212.758312
 51
241.480382
  0
ARC
  8
CONSTRUCTION
 10
25.580268
 20
14.214602
 40
0.08525
 50
240.885172
 51
280.197039
  0
ARC
  8
CONSTRUCTION
 10
25.581126
 20
14.214515
 40
0.085017
 50
279.638795
 51
346.268726
  0
ARC
  8
CONSTRUCTION
 10
25.578432
 20
14.215826
 40
0.087947
 50
345.855291
 51
30.402309
  0
ARC
  8
CONSTRUCTION
 10
25.51553
 20
14.178146
 40
0.16127
 50
30.6389
 51
59.3611
  0
ARC
  8
CONSTRUCTION
 10
25.677179
 20
14.480316
 40
0.18171
 50
244.068075
 51
300.63788
  0
LINE
  8
CONSTRUCTION
 10
25.769781
 11
25.640143
 20
14.323972
 21
14.453609
  0
LINE
  8
CONSTRUCTION
 10
25.832325
 11
25.985532
 20
14.260315
 21
14.107109
  0
LINE
  8
CONSTRUCTION
 10
25.985532
 11
25.973746
 20
14.107109
 21
14.095326
  0
ARC
  8
CONSTRUCTION
 10
25.925142
 20
13.757423
 40
0.34138
 50
81.8148
 51
136.6842
  0
ARC
  8
CONSTRUCTION
 10
25.961413
 20
13.862341
 40
0.11194
 50
157.7274
 51
202.2726
  0
ARC
  8
CONSTRUCTION
 10
25.964101
 20
13.862552
 40
0.11451
 50
201.860287
 51
248.140726
  0
ARC
  8
CONSTRUCTION
 10
25.962555
 20
13.857576
 40
0.109317
 50
247.922067
 51
312.893283
  0
ARC
  8
CONSTRUCTION
 10
25.969807
 20
13.849517
 40
0.098477
 50
312.993348
 51
26.191207
  0
ARC
  8
CONSTRUCTION
 10
25.932762
 20
13.83122
 40
0.139793
 50
26.219129
 51
63.775441
  0
ARC
  8
CONSTRUCTION
 10
25.94346
 20
13.854434
 40
0.114243
 50
63.443904
 51
93.941081
  0
LINE
  8
CONSTRUCTION
 10
25.935608
 11
26.046389
 20
13.968407
 21
14.046189
  0
LINE
  8
CONSTRUCTION
 10
26.046389
 11
26.152455
 20
14.046189
 21
13.940123
  0
LINE
  8
CONSTRUCTION
 10
26.231567
 11
26.22096
 20
13.84178
 21
13.852387
  0
LINE
  8
CONSTRUCTION
 10
26.22096
 11
26.231567
 20
13.852387
 21
13.862994
  0
LINE
  8
CONSTRUCTION
 10
26.231567
 11
26.242174
 20
13.862994
 21
13.852387
  0
LINE
  8
CONSTRUCTION
 10
26.242174
 11
26.216718
 20
13.852387
 21
13.826931
  0
LINE
  8
CONSTRUCTION
 10
26.216718
 11
26.199747
 20
13.826931
 21
13.814203
  0
LINE
  8
CONSTRUCTION
 10
26.199747
 11
26.184898
 20
13.814203
 21
13.807839
  0
LINE
  8
CONSTRUCTION
 10
26.28291
 11
26.272303
 20
13.790069
 21
13.800675
  0
LINE
  8
CONSTRUCTION
 10
26.272303
 11
26.28291
 20
13.800675
 21
13.811282
  0
LINE
  8
CONSTRUCTION
 10
26.28291
 11
26.293516
 20
13.811282
 21
13.800675
  0
LINE
  8
CONSTRUCTION
 10
26.293516
 11
26.26806
 20
13.800675
 21
13.77522
  0
LINE
  8
CONSTRUCTION
 10
26.26806
 11
26.25109
 20
13.77522
 21
13.762492
  0
LINE
  8
CONSTRUCTION
 10
26.25109
 11
26.236241
 20
13.762492
 21
13.756128
  0
LINE
  8
CONSTRUCTION
 10
1.074273
 11
1.169847
 20
2.337234
 21
2.230416
  0
ARC
  8
CONSTRUCTION
 10
1.226982
 20
2.281537
 40
0.076667
 50
221.82017
 51
41.82017
  0
LINE
  8
CONSTRUCTION
 10
1.284117
 11
1.188544
 20
2.332658
 21
2.439476
  0
LINE
  8
CONSTRUCTION
 10
1.188544
 11
0.964971
 20
2.439476
 21
2.239437
  0
LINE
  8
CONSTRUCTION
 10
1.163179
 11
1.09833
 20
2.237868
 21
2.090389
  0
LINE
  8
CONSTRUCTION
 10
1.588993
 11
1.422294
 20
1.692127
 21
1.878437
  0
LINE
  8
CONSTRUCTION
 10
1.422294
 11
1.434715
 20
1.878437
 21
1.88955
  0
LINE
  8
CONSTRUCTION
 10
1.434715
 11
1.682475
 20
1.88955
 21
1.887589
  0
LINE
  8
CONSTRUCTION
 10
1.682475
 11
1.693588
 20
1.887589
 21
1.875169
  0
LINE
  8
CONSTRUCTION
 10
1.693588
 11
1.470016
 20
1.875169
 21
1.67513
  0
CIRCLE
  8
CONSTRUCTION
 10
1.590521
 20
1.585455
 40
0.03
  0
LINE
  8
CONSTRUCTION
 10
1.628432
 11
1.662751
 20
1.497922
 21
1.459566
  0
LINE
  8
CONSTRUCTION
 10
1.662751
 11
1.69707
 20
1.459566
 21
1.421209
  0
LINE
  8
CONSTRUCTION
 10
1.662751
 11
1.886324
 20
1.459566
 21
1.659604
  0
LINE
  8
CONSTRUCTION
 10
1.886324
 11
1.813648
 20
1.659604
 21
1.663642
  0
LINE
  8
CONSTRUCTION
 10
1.870436
 11
1.737078
 20
1.227445
 21
1.376494
  0
ARC
  8
CONSTRUCTION
 10
1.807692
 20
1.297784
 40
0.105743
 50
73.633732
 51
131.89673
  0
LINE
  8
CONSTRUCTION
 10
1.837488
 11
1.965225
 20
1.399243
 21
1.361459
  0
ARC
  8
CONSTRUCTION
 10
1.987825
 20
1.431181
 40
0.073293
 50
252.040183
 51
11.599605
  0
ARC
  8
CONSTRUCTION
 10
1.943355
 20
1.417932
 40
0.119587
 50
13.534004
 51
70.103855
  0
ARC
  8
CONSTRUCTION
 10
1.959438
 20
1.463333
 40
0.071423
 50
69.84087
 51
121.29187
  0
ARC
  8
CONSTRUCTION
 10
2.061977
 20
1.178381
 40
0.11194
 50
154.54757
 51
199.09277
  0
ARC
  8
CONSTRUCTION
 10
2.064672
 20
1.178442
 40
0.11451
 50
198.680457
 51
244.960896
  0
ARC
  8
CONSTRUCTION
 10
2.062852
 20
1.173559
 40
0.109317
 50
244.742236
 51
309.713453
  0
ARC
  8
CONSTRUCTION
 10
2.069646
 20
1.16511
 40
0.098477
 50
309.813518
 51
23.011377
  0
ARC
  8
CONSTRUCTION
 10
2.031643
 20
1.148897
 40
0.139793
 50
23.039299
 51
60.595611
  0
ARC
  8
CONSTRUCTION
 10
2.043613
 20
1.171481
 40
0.114243
 50
60.264074
 51
90.761251
  0
LINE
  8
CONSTRUCTION
 10
2.042095
 11
2.157019
 20
1.285715
 21
1.357232
  0
LINE
  8
CONSTRUCTION
 10
2.157019
 11
2.257039
 20
1.357232
 21
1.245446
  0
LINE
  8
CONSTRUCTION
 10
2.330574
 11
2.320572
 20
1.142866
 21
1.154045
  0
LINE
  8
CONSTRUCTION
 10
2.320572
 11
2.33175
 20
1.154045
 21
1.164047
  0
LINE
  8
CONSTRUCTION
 10
2.33175
 11
2.341752
 20
1.164047
 21
1.152868
  0
LINE
  8
CONSTRUCTION
 10
2.341752
 11
2.314924
 20
1.152868
 21
1.128863
  0
LINE
  8
CONSTRUCTION
 10
2.314924
 11
2.297273
 20
1.128863
 21
1.117096
  0
LINE
  8
CONSTRUCTION
 10
2.297273
 11
2.282094
 20
1.117096
 21
1.111566
  0
LINE
  8
CONSTRUCTION
 10
2.378969
 11
2.368967
 20
1.088386
 21
1.099565
  0
LINE
  8
CONSTRUCTION
 10
2.368967
 11
2.380146
 20
1.099565
 21
1.109567
  0
LINE
  8
CONSTRUCTION
 10
2.380146
 11
2.390148
 20
1.109567
 21
1.098388
  0
LINE
  8
CONSTRUCTION
 10
2.390148
 11
2.363319
 20
1.098388
 21
1.074383
  0
LINE
  8
CONSTRUCTION
 10
2.363319
 11
2.345669
 20
1.074383
 21
1.062616
  0
LINE
  8
CONSTRUCTION
 10
2.345669
 11
2.330489
 20
1.062616
 21
1.057086
  0
LINE
  8
CONSTRUCTION
 10
0.979529
 11
1.083446
 20
11.498419
 21
11.597139
  0
ARC
  8
CONSTRUCTION
 10
1.030642
 20
11.652723
 40
0.076667
 50
313.531199
 51
133.531199
  0
LINE
  8
CONSTRUCTION
 10
0.977838
 11
0.873921
 20
11.708306
 21
11.609585
  0
LINE
  8
CONSTRUCTION
 10
0.873921
 11
1.080546
 20
11.609585
 21
11.392085
  0
LINE
  8
CONSTRUCTION
 10
1.076196
 11
1.225546
 20
11.590252
 21
11.529835
  0
LINE
  8
CONSTRUCTION
 10
1.60898
 11
1.42773
 20
12.032171
 21
11.859983
  0
LINE
  8
CONSTRUCTION
 10
1.42773
 11
1.416251
 20
11.859983
 21
11.872067
  0
LINE
  8
CONSTRUCTION
 10
1.416251
 11
1.410814
 20
11.872067
 21
12.119775
  0
LINE
  8
CONSTRUCTION
 10
1.410814
 11
1.422897
 20
12.119775
 21
12.131254
  0
LINE
  8
CONSTRUCTION
 10
1.422897
 11
1.629522
 20
12.131254
 21
11.913754
  0
CIRCLE
  8
CONSTRUCTION
 10
1.715559
 20
12.036884
 40
0.03
  0
LINE
  8
CONSTRUCTION
 10
1.80192
 11
1.839235
 20
12.077391
 21
12.11284
  0
LINE
  8
CONSTRUCTION
 10
1.839235
 11
1.87655
 20
12.11284
 21
12.148289
  0
LINE
  8
CONSTRUCTION
 10
1.839235
 11
1.63261
 20
12.11284
 21
12.33034
  0
LINE
  8
CONSTRUCTION
 10
1.63261
 11
1.630745
 20
12.33034
 21
12.257576
  0
LINE
  8
CONSTRUCTION
 10
2.065051
 11
1.92005
 20
12.327363
 21
12.189614
  0
ARC
  8
CONSTRUCTION
 10
1.996617
 20
12.262547
 40
0.105743
 50
165.344762
 51
223.60776
  0
LINE
  8
CONSTRUCTION
 10
1.894314
 11
1.928267
 20
12.289301
 21
12.418109
  0
ARC
  8
CONSTRUCTION
 10
1.857901
 20
12.438617
 40
0.073293
 50
343.751213
 51
103.310635
  0
ARC
  8
CONSTRUCTION
 10
1.872472
 20
12.394563
 40
0.119587
 50
105.245033
 51
161.814884
  0
ARC
  8
CONSTRUCTION
 10
1.826611
 20
12.409283
 40
0.071423
 50
161.551899
 51
213.002899
  0
ARC
  8
CONSTRUCTION
 10
2.108374
 20
12.520284
 40
0.11194
 50
246.258599
 51
290.803799
  0
ARC
  8
CONSTRUCTION
 10
2.108233
 20
12.522976
 40
0.11451
 50
290.391486
 51
336.671925
  0
ARC
  8
CONSTRUCTION
 10
2.113168
 20
12.521302
 40
0.109317
 50
336.453266
 51
41.424483
  0
ARC
  8
CONSTRUCTION
 10
2.12141
 20
12.528345
 40
0.098477
 50
41.524547
 51
114.722407
  0
ARC
  8
CONSTRUCTION
 10
2.138751
 20
12.490844
 40
0.139793
 50
114.750328
 51
152.30664
  0
ARC
  8
CONSTRUCTION
 10
2.115819
 20
12.502134
 40
0.114243
 50
151.975103
 51
182.47228
  0
LINE
  8
CONSTRUCTION
 10
2.001682
 11
1.926765
 20
12.497206
 21
12.609944
  0
LINE
  8
CONSTRUCTION
 10
1.926765
 11
2.035515
 20
12.609944
 21
12.713256
  0
LINE
  8
CONSTRUCTION
 10
2.135853
 11
2.124978
 20
12.789821
 21
12.77949
  0
LINE
  8
CONSTRUCTION
 10
2.124978
 11
2.114647
 20
12.77949
 21
12.790365
  0
LINE
  8
CONSTRUCTION
 10
2.114647
 11
2.125522
 20
12.790365
 21
12.800696
  0
LINE
  8
CONSTRUCTION
 10
2.125522
 11
2.150317
 20
12.800696
 21
12.774596
  0
LINE
  8
CONSTRUCTION
 10
2.150317
 11
2.162606
 20
12.774596
 21
12.757305
  0
LINE
  8
CONSTRUCTION
 10
2.162606
 11
2.168587
 20
12.757305
 21
12.742298
  0
LINE
  8
CONSTRUCTION
 10
2.188864
 11
2.177989
 20
12.839822
 21
12.829491
  0
LINE
  8
CONSTRUCTION
 10
2.177989
 11
2.167658
 20
12.829491
 21
12.840365
  0
LINE
  8
CONSTRUCTION
 10
2.167658
 11
2.178533
 20
12.840365
 21
12.850697
  0
LINE
  8
CONSTRUCTION
 10
2.178533
 11
2.203328
 20
12.850697
 21
12.824597
  0
LINE
  8
CONSTRUCTION
 10
2.203328
 11
2.215616
 20
12.824597
 21
12.807306
  0
LINE
  8
CONSTRUCTION
 10
2.215616
 11
2.221598
 20
12.807306
 21
12.792298
  0
TEXT
  8
TEXT
 10
20.891722
 20
3.231849
 30
0.0
 40
0.5
 50
0.0
  1
Template line is
  0
TEXT
  8
TEXT
 10
20.891722
 20
2.481849
 30
0.0
 40
0.5
 50
0.0
  1
i
  0
TEXT
  8
TEXT
 10
21.120353
 20
2.481849
 30
0.0
 40
0.5
 50
0.0
  1
nside perimeter
  0
TEXT
  8
TEXT
 10
20.891722
 20
1.731849
 30
0.0
 40
0.5
 50
0.0
  1
of sink
  0
TEXT
  8
TEXT
 10
22.864949
 20
4.448701
 30
0.0
 40
0.5
 50
0.0
  1
y
  0
TEXT
  8
TEXT
 10
20.896136
 20
4.448701
 30
0.0
 40
0.5
 50
0.0
  1
accurac
  0
TEXT
  8
TEXT
 10
20.896136
 20
5.198701
 30
0.0
 40
0.5
 50
0.0
  1
with sink for
  0
TEXT
  8
TEXT
 10
20.896136
 20
5.948701
 30
0.0
 40
0.5
 50
0.0
  1
Please check template
  0
TEXT
  8
TEXT
 10
11.329232
 20
11.093829
 30
0.0
 40
1.0
 50
0.0
  1
KARRAN
  0
TEXT
  8
TEXT
 10
8.625767
 20
9.096793
 30
0.0
 40
1.0
 50
0.0
  1
PU23L & PU53L
  0
ENDSEC
  0
EOF
