  0
SECTION
  2
ENTITIES
  0
ARC
  8
APS_GEOMETRY
 10
24.156092
 20
10.783292
 40
4.125
 50
0.0
 51
90.0
  0
LINE
  8
APS_GEOMETRY
 10
24.156092
 11
14.104269
 20
14.908292
 21
14.908292
  0
ARC
  8
APS_GEOMETRY
 10
14.104269
 20
15.658292
 40
0.75
 50
210.862839
 51
270.0
  0
ARC
  8
APS_GEOMETRY
 10
9.91958
 20
13.157492
 40
4.125
 50
30.862839
 51
89.999988
  0
LINE
  8
APS_GEOMETRY
 10
9.919581
 11
3.093592
 20
17.282492
 21
17.282492
  0
ARC
  8
APS_GEOMETRY
 10
3.093592
 20
12.907492
 40
4.375
 50
90.0
 51
180.0
  0
LINE
  8
APS_GEOMETRY
 10
-1.281408
 11
-1.281408
 20
12.907492
 21
3.093592
  0
ARC
  8
APS_GEOMETRY
 10
3.093592
 20
3.093592
 40
4.375
 50
180.0
 51
270.0
  0
LINE
  8
APS_GEOMETRY
 10
3.093592
 11
24.156092
 20
-1.281408
 21
-1.281408
  0
ARC
  8
APS_GEOMETRY
 10
24.156092
 20
2.843592
 40
4.125
 50
270.0
 51
0.0
  0
LINE
  8
APS_GEOMETRY
 10
28.281092
 11
28.281092
 20
2.843592
 21
10.783292
  0
CIRCLE
  8
CONSTRUCTION
 10
23.378894
 20
6.59753
 40
0.05
  0
CIRCLE
  8
CONSTRUCTION
 10
6.704652
 20
11.985102
 40
0.05
  0
CIRCLE
  8
CONSTRUCTION
 10
19.363955
 20
11.158598
 40
0.05
  0
ARC
  8
CONSTRUCTION
 10
13.288604
 20
-1.174227
 40
0.182363
 50
121.026839
 51
130.045456
  0
ARC
  8
CONSTRUCTION
 10
13.232667
 20
-1.11129
 40
0.09822
 50
128.687518
 51
231.311599
  0
ARC
  8
CONSTRUCTION
 10
13.286269
 20
-1.04605
 40
0.182653
 50
230.979259
 51
309.021901
  0
ARC
  8
CONSTRUCTION
 10
13.339876
 20
-1.111287
 40
0.09822
 50
308.687906
 51
51.312336
  0
ARC
  8
CONSTRUCTION
 10
13.294167
 20
-1.175353
 40
0.176853
 50
52.727273
 51
65.346381
  0
LINE
  8
CONSTRUCTION
 10
13.329167
 11
13.329167
 20
-0.981462
 21
-0.837462
  0
ARC
  8
CONSTRUCTION
 10
13.32591
 20
-0.926427
 40
0.089025
 50
87.902951
 51
120.171303
  0
ARC
  8
CONSTRUCTION
 10
13.314081
 20
-0.90657
 40
0.065913
 50
119.957157
 51
179.906258
  0
ARC
  8
CONSTRUCTION
 10
13.318767
 20
-0.90633
 40
0.070599
 50
180.106825
 51
243.410314
  0
ARC
  8
CONSTRUCTION
 10
13.341167
 20
-0.86154
 40
0.120678
 50
243.418387
 51
296.581508
  0
ARC
  8
CONSTRUCTION
 10
13.363568
 20
-0.90633
 40
0.070599
 50
296.588653
 51
359.892374
  0
ARC
  8
CONSTRUCTION
 10
13.356986
 20
-0.906748
 40
0.077181
 50
0.211677
 51
55.08143
  0
LINE
  8
CONSTRUCTION
 10
13.438821
 11
13.300819
 20
-0.678458
 21
-0.678456
  0
ARC
  8
CONSTRUCTION
 10
13.300553
 20
-0.729188
 40
0.050733
 50
89.698802
 51
180.305782
  0
ARC
  8
CONSTRUCTION
 10
13.337084
 20
-0.729527
 40
0.087264
 50
179.955293
 51
243.260248
  0
LINE
  8
CONSTRUCTION
 10
13.329167
 11
13.329167
 20
-0.512642
 21
-0.368642
  0
ARC
  8
CONSTRUCTION
 10
13.32591
 20
-0.457607
 40
0.089025
 50
87.902951
 51
120.171303
  0
ARC
  8
CONSTRUCTION
 10
13.314081
 20
-0.43775
 40
0.065913
 50
119.957157
 51
179.906258
  0
ARC
  8
CONSTRUCTION
 10
13.318767
 20
-0.43751
 40
0.070599
 50
180.106825
 51
243.410314
  0
ARC
  8
CONSTRUCTION
 10
13.341168
 20
-0.392721
 40
0.120678
 50
243.417609
 51
296.580699
  0
ARC
  8
CONSTRUCTION
 10
13.363568
 20
-0.437511
 40
0.070599
 50
296.588678
 51
359.89276
  0
ARC
  8
CONSTRUCTION
 10
13.356986
 20
-0.437928
 40
0.077181
 50
0.210933
 51
55.081423
  0
ARC
  8
CONSTRUCTION
 10
13.328295
 20
-0.222571
 40
0.078477
 50
179.6195
 51
260.8532
  0
LINE
  8
CONSTRUCTION
 10
13.438821
 11
13.300819
 20
0.228768
 21
0.22877
  0
ARC
  8
CONSTRUCTION
 10
13.300553
 20
0.178038
 40
0.050733
 50
89.698802
 51
180.305782
  0
ARC
  8
CONSTRUCTION
 10
13.337084
 20
0.177699
 40
0.087264
 50
179.955293
 51
243.260248
  0
LINE
  8
CONSTRUCTION
 10
13.329167
 11
13.329167
 20
0.259584
 21
0.403584
  0
ARC
  8
CONSTRUCTION
 10
13.32591
 20
0.314619
 40
0.089025
 50
87.902951
 51
120.171303
  0
ARC
  8
CONSTRUCTION
 10
13.314081
 20
0.334476
 40
0.065913
 50
119.957157
 51
179.906258
  0
ARC
  8
CONSTRUCTION
 10
13.318767
 20
0.334716
 40
0.070599
 50
180.106825
 51
243.410314
  0
ARC
  8
CONSTRUCTION
 10
13.341168
 20
0.379505
 40
0.120678
 50
243.417609
 51
296.580699
  0
ARC
  8
CONSTRUCTION
 10
13.363568
 20
0.334715
 40
0.070599
 50
296.588678
 51
359.89276
  0
ARC
  8
CONSTRUCTION
 10
13.356986
 20
0.334298
 40
0.077181
 50
0.210933
 51
55.081423
  0
LINE
  8
CONSTRUCTION
 10
22.776749
 11
22.443416
 20
6.547338
 21
6.54734
  0
ARC
  8
CONSTRUCTION
 10
22.619655
 20
6.547576
 40
0.176239
 50
121.81371
 51
180.076556
  0
LINE
  8
CONSTRUCTION
 10
22.526749
 11
22.715637
 20
6.697338
 21
6.814005
  0
ARC
  8
CONSTRUCTION
 10
22.654152
 20
6.919559
 40
0.122156
 50
300.220549
 51
59.778705
  0
ARC
  8
CONSTRUCTION
 10
22.621189
 20
6.849602
 40
0.199311
 50
61.713556
 51
118.283704
  0
ARC
  8
CONSTRUCTION
 10
22.582672
 20
6.920033
 40
0.119039
 50
118.021047
 51
169.471729
  0
ARC
  8
CONSTRUCTION
 10
23.035636
 20
6.704839
 40
0.1637
 50
218.687092
 51
321.311843
  0
ARC
  8
CONSTRUCTION
 10
22.926903
 20
6.794178
 40
0.304422
 50
320.979181
 51
39.021833
  0
ARC
  8
CONSTRUCTION
 10
23.035633
 20
6.883521
 40
0.1637
 50
38.688358
 51
141.311414
  0
ARC
  8
CONSTRUCTION
 10
23.010684
 20
6.902513
 40
0.132356
 50
140.97766
 51
219.021779
  0
ARC
  8
CONSTRUCTION
 10
23.043968
 20
6.92818
 40
0.174378
 50
218.688021
 51
321.311974
  0
ARC
  8
CONSTRUCTION
 10
23.055706
 20
6.920388
 40
0.16035
 50
320.863556
 51
349.585998
  0
ARC
  8
CONSTRUCTION
 10
23.703553
 20
6.730718
 40
0.186567
 50
202.7274
 51
247.2726
  0
ARC
  8
CONSTRUCTION
 10
23.706471
 20
6.734134
 40
0.19085
 50
246.860655
 51
293.141257
  0
ARC
  8
CONSTRUCTION
 10
23.710514
 20
6.726446
 40
0.182194
 50
292.922291
 51
357.893331
  0
ARC
  8
CONSTRUCTION
 10
23.728557
 20
6.725496
 40
0.164128
 50
357.993486
 51
71.191211
  0
ARC
  8
CONSTRUCTION
 10
23.706462
 20
6.660276
 40
0.232989
 50
71.218855
 51
108.775129
  0
ARC
  8
CONSTRUCTION
 10
23.691715
 20
6.700242
 40
0.190406
 50
108.444359
 51
138.941371
  0
LINE
  8
CONSTRUCTION
 10
23.548142
 11
23.587031
 20
6.825306
 21
7.047529
  0
LINE
  8
CONSTRUCTION
 10
23.587031
 11
23.837031
 20
7.047529
 21
7.047529
  0
ARC
  8
CONSTRUCTION
 10
24.191847
 20
6.884401
 40
0.1637
 50
38.687092
 51
141.311843
  0
ARC
  8
CONSTRUCTION
 10
24.300581
 20
6.795063
 40
0.304422
 50
140.979452
 51
219.022012
  0
ARC
  8
CONSTRUCTION
 10
24.191851
 20
6.705719
 40
0.1637
 50
218.688413
 51
321.311412
  0
ARC
  8
CONSTRUCTION
 10
24.2168
 20
6.686726
 40
0.132356
 50
320.978002
 51
39.022121
  0
ARC
  8
CONSTRUCTION
 10
24.183515
 20
6.661061
 40
0.174378
 50
38.68781
 51
141.312028
  0
ARC
  8
CONSTRUCTION
 10
24.171778
 20
6.668854
 40
0.16035
 50
140.864074
 51
169.586213
  0
ARC
  8
CONSTRUCTION
 10
6.298534
 20
11.630078
 40
0.216644
 50
25.9876
 51
43.9964
  0
ARC
  8
CONSTRUCTION
 10
6.37661
 20
11.705636
 40
0.107994
 50
43.930998
 51
136.073059
  0
ARC
  8
CONSTRUCTION
 10
6.445416
 20
11.658334
 40
0.190856
 50
140.179003
 51
219.819358
  0
ARC
  8
CONSTRUCTION
 10
6.373825
 20
11.599412
 40
0.098139
 50
220.163164
 51
319.839621
  0
ARC
  8
CONSTRUCTION
 10
6.318778
 20
11.645511
 40
0.169939
 50
319.930802
 51
6.21048
  0
ARC
  8
CONSTRUCTION
 10
6.656661
 20
11.682288
 40
0.169939
 50
139.934852
 51
186.213557
  0
ARC
  8
CONSTRUCTION
 10
6.621051
 20
11.721761
 40
0.117506
 50
36.509456
 51
143.491083
  0
ARC
  8
CONSTRUCTION
 10
6.535958
 20
11.658341
 40
0.223633
 50
323.400504
 51
36.598635
  0
ARC
  8
CONSTRUCTION
 10
6.62105
 20
11.594919
 40
0.117506
 50
216.510541
 51
323.48965
  0
ARC
  8
CONSTRUCTION
 10
6.811843
 20
11.739577
 40
0.356933
 50
202.534903
 51
216.952434
  0
ARC
  8
CONSTRUCTION
 10
6.571464
 20
12.309761
 40
0.186567
 50
292.7274
 51
337.2726
  0
ARC
  8
CONSTRUCTION
 10
6.568048
 20
12.312679
 40
0.19085
 50
336.860655
 51
23.141257
  0
ARC
  8
CONSTRUCTION
 10
6.575736
 20
12.316722
 40
0.182194
 50
22.922291
 51
87.893331
  0
ARC
  8
CONSTRUCTION
 10
6.576686
 20
12.334766
 40
0.164128
 50
87.993486
 51
161.191211
  0
ARC
  8
CONSTRUCTION
 10
6.641906
 20
12.31267
 40
0.232989
 50
161.218855
 51
198.775129
  0
ARC
  8
CONSTRUCTION
 10
6.60194
 20
12.297923
 40
0.190406
 50
198.444359
 51
228.941371
  0
LINE
  8
CONSTRUCTION
 10
6.476876
 11
6.254653
 20
12.15435
 21
12.193239
  0
LINE
  8
CONSTRUCTION
 10
6.254653
 11
6.254653
 20
12.193239
 21
12.443239
  0
ARC
  8
CONSTRUCTION
 10
6.417781
 20
12.798056
 40
0.1637
 50
128.687092
 51
231.311843
  0
ARC
  8
CONSTRUCTION
 10
6.50712
 20
12.906789
 40
0.304422
 50
230.979181
 51
309.021833
  0
ARC
  8
CONSTRUCTION
 10
6.596463
 20
12.798059
 40
0.1637
 50
308.688358
 51
51.311638
  0
ARC
  8
CONSTRUCTION
 10
6.615456
 20
12.823008
 40
0.132356
 50
50.978002
 51
129.022121
  0
ARC
  8
CONSTRUCTION
 10
6.641122
 20
12.789724
 40
0.174378
 50
128.688073
 51
231.311502
  0
ARC
  8
CONSTRUCTION
 10
6.633329
 20
12.777986
 40
0.16035
 50
230.86333
 51
259.586002
  0
ARC
  8
CONSTRUCTION
 10
19.077084
 20
10.85734
 40
0.1637
 50
128.687092
 51
231.311843
  0
ARC
  8
CONSTRUCTION
 10
19.166423
 20
10.966073
 40
0.304422
 50
230.979181
 51
309.021833
  0
ARC
  8
CONSTRUCTION
 10
19.255766
 20
10.857343
 40
0.1637
 50
308.688358
 51
51.311638
  0
ARC
  8
CONSTRUCTION
 10
19.274758
 20
10.882292
 40
0.132356
 50
50.978002
 51
129.022121
  0
ARC
  8
CONSTRUCTION
 10
19.300424
 20
10.849007
 40
0.174378
 50
128.688073
 51
231.311502
  0
ARC
  8
CONSTRUCTION
 10
19.292632
 20
10.83727
 40
0.16035
 50
230.86333
 51
259.586002
  0
ARC
  8
CONSTRUCTION
 10
18.957837
 20
11.73699
 40
0.216644
 50
25.9876
 51
43.9964
  0
ARC
  8
CONSTRUCTION
 10
19.035912
 20
11.812549
 40
0.107994
 50
43.930629
 51
136.072359
  0
ARC
  8
CONSTRUCTION
 10
19.104719
 20
11.765246
 40
0.190856
 50
140.178597
 51
219.819304
  0
ARC
  8
CONSTRUCTION
 10
19.033127
 20
11.706324
 40
0.098139
 50
220.163162
 51
319.839619
  0
ARC
  8
CONSTRUCTION
 10
18.978081
 20
11.752424
 40
0.169939
 50
319.93055
 51
6.210424
  0
ARC
  8
CONSTRUCTION
 10
19.315963
 20
11.789201
 40
0.169939
 50
139.934903
 51
186.213557
  0
ARC
  8
CONSTRUCTION
 10
19.280353
 20
11.828673
 40
0.117506
 50
36.509148
 51
143.490855
  0
ARC
  8
CONSTRUCTION
 10
19.195261
 20
11.765252
 40
0.223633
 50
323.400504
 51
36.598635
  0
ARC
  8
CONSTRUCTION
 10
19.280353
 20
11.701831
 40
0.117506
 50
216.510541
 51
323.48965
  0
ARC
  8
CONSTRUCTION
 10
19.471146
 20
11.846488
 40
0.356933
 50
202.534776
 51
216.952333
  0
LINE
  8
CONSTRUCTION
 10
13.438821
 11
13.249821
 20
-0.807458
 21
-0.807458
  0
LINE
  8
CONSTRUCTION
 10
13.168821
 11
13.438821
 20
-0.583519
 21
-0.583519
  0
LINE
  8
CONSTRUCTION
 10
13.252821
 11
13.252821
 20
-0.619519
 21
-0.544519
  0
LINE
  8
CONSTRUCTION
 10
13.249821
 11
13.438821
 20
-0.300049
 21
-0.300049
  0
LINE
  8
CONSTRUCTION
 10
13.438821
 11
13.438821
 20
-0.338638
 21
-0.26146
  0
LINE
  8
CONSTRUCTION
 10
13.438821
 11
13.438821
 20
-0.19205
 21
-0.14473
  0
LINE
  8
CONSTRUCTION
 10
13.438821
 11
13.168821
 20
-0.14473
 21
-0.14473
  0
LINE
  8
CONSTRUCTION
 10
13.168821
 11
13.168821
 20
-0.14473
 21
-0.166771
  0
LINE
  8
CONSTRUCTION
 10
13.438821
 11
13.438821
 20
-0.14473
 21
-0.097411
  0
LINE
  8
CONSTRUCTION
 10
13.165821
 11
13.189821
 20
0.001179
 21
0.001179
  0
LINE
  8
CONSTRUCTION
 10
13.438821
 11
13.249821
 20
0.001179
 21
0.001179
  0
LINE
  8
CONSTRUCTION
 10
13.438821
 11
13.438821
 20
-0.037411
 21
0.039768
  0
LINE
  8
CONSTRUCTION
 10
13.438821
 11
13.249821
 20
0.099768
 21
0.099768
  0
LINE
  8
CONSTRUCTION
 10
24.499161
 11
24.474161
 20
7.024866
 21
7.024866
  0
LINE
  8
CONSTRUCTION
 10
24.474161
 11
24.474161
 20
7.024866
 21
7.049866
  0
LINE
  8
CONSTRUCTION
 10
24.474161
 11
24.499161
 20
7.049866
 21
7.049866
  0
LINE
  8
CONSTRUCTION
 10
24.499161
 11
24.499161
 20
7.049866
 21
6.989866
  0
LINE
  8
CONSTRUCTION
 10
24.499161
 11
24.494161
 20
6.989866
 21
6.954866
  0
LINE
  8
CONSTRUCTION
 10
24.494161
 11
24.484161
 20
6.954866
 21
6.929866
  0
LINE
  8
CONSTRUCTION
 10
24.620612
 11
24.595612
 20
7.024431
 21
7.024431
  0
LINE
  8
CONSTRUCTION
 10
24.595612
 11
24.595612
 20
7.024431
 21
7.049431
  0
LINE
  8
CONSTRUCTION
 10
24.595612
 11
24.620612
 20
7.049431
 21
7.049431
  0
LINE
  8
CONSTRUCTION
 10
24.620612
 11
24.620612
 20
7.049431
 21
6.989431
  0
LINE
  8
CONSTRUCTION
 10
24.620612
 11
24.615612
 20
6.989431
 21
6.954431
  0
LINE
  8
CONSTRUCTION
 10
24.615612
 11
24.605612
 20
6.954431
 21
6.929431
  0
LINE
  8
CONSTRUCTION
 10
6.754842
 11
6.754842
 20
11.202539
 21
11.374101
  0
LINE
  8
CONSTRUCTION
 10
6.754842
 11
6.254842
 20
11.28832
 21
11.28832
  0
LINE
  8
CONSTRUCTION
 10
6.254842
 11
6.340623
 20
11.28832
 21
11.202539
  0
LINE
  8
CONSTRUCTION
 10
6.277316
 11
6.277316
 20
13.105369
 21
13.080369
  0
LINE
  8
CONSTRUCTION
 10
6.277316
 11
6.252316
 20
13.080369
 21
13.080369
  0
LINE
  8
CONSTRUCTION
 10
6.252316
 11
6.252316
 20
13.080369
 21
13.105369
  0
LINE
  8
CONSTRUCTION
 10
6.252316
 11
6.312316
 20
13.105369
 21
13.105369
  0
LINE
  8
CONSTRUCTION
 10
6.312316
 11
6.347316
 20
13.105369
 21
13.100369
  0
LINE
  8
CONSTRUCTION
 10
6.347316
 11
6.372316
 20
13.100369
 21
13.090369
  0
LINE
  8
CONSTRUCTION
 10
6.277751
 11
6.277751
 20
13.22682
 21
13.20182
  0
LINE
  8
CONSTRUCTION
 10
6.277751
 11
6.252751
 20
13.20182
 21
13.20182
  0
LINE
  8
CONSTRUCTION
 10
6.252751
 11
6.252751
 20
13.20182
 21
13.22682
  0
LINE
  8
CONSTRUCTION
 10
6.252751
 11
6.312751
 20
13.22682
 21
13.22682
  0
LINE
  8
CONSTRUCTION
 10
6.312751
 11
6.347751
 20
13.22682
 21
13.22182
  0
LINE
  8
CONSTRUCTION
 10
6.347751
 11
6.372751
 20
13.22182
 21
13.21182
  0
LINE
  8
CONSTRUCTION
 10
19.414144
 11
19.414144
 20
10.38489
 21
10.556453
  0
LINE
  8
CONSTRUCTION
 10
19.414144
 11
18.914144
 20
10.470672
 21
10.470672
  0
LINE
  8
CONSTRUCTION
 10
18.914144
 11
18.999926
 20
10.470672
 21
10.38489
  0
LINE
  8
CONSTRUCTION
 10
19.414144
 11
19.414144
 20
11.309451
 21
11.481014
  0
LINE
  8
CONSTRUCTION
 10
19.414144
 11
18.914144
 20
11.395232
 21
11.395232
  0
LINE
  8
CONSTRUCTION
 10
18.914144
 11
18.999926
 20
11.395232
 21
11.309451
  0
LINE
  8
CONSTRUCTION
 10
18.936619
 11
18.936619
 20
12.09807
 21
12.07307
  0
LINE
  8
CONSTRUCTION
 10
18.936619
 11
18.911619
 20
12.07307
 21
12.07307
  0
LINE
  8
CONSTRUCTION
 10
18.911619
 11
18.911619
 20
12.07307
 21
12.09807
  0
LINE
  8
CONSTRUCTION
 10
18.911619
 11
18.971619
 20
12.09807
 21
12.09807
  0
LINE
  8
CONSTRUCTION
 10
18.971619
 11
19.006619
 20
12.09807
 21
12.09307
  0
LINE
  8
CONSTRUCTION
 10
19.006619
 11
19.031619
 20
12.09307
 21
12.08307
  0
LINE
  8
CONSTRUCTION
 10
18.937053
 11
18.937053
 20
12.219521
 21
12.194521
  0
LINE
  8
CONSTRUCTION
 10
18.937053
 11
18.912053
 20
12.194521
 21
12.194521
  0
LINE
  8
CONSTRUCTION
 10
18.912053
 11
18.912053
 20
12.194521
 21
12.219521
  0
LINE
  8
CONSTRUCTION
 10
18.912053
 11
18.972053
 20
12.219521
 21
12.219521
  0
LINE
  8
CONSTRUCTION
 10
18.972053
 11
19.007053
 20
12.219521
 21
12.214521
  0
LINE
  8
CONSTRUCTION
 10
19.007053
 11
19.032053
 20
12.214521
 21
12.204521
  0
LINE
  8
APS_GEOMETRY
 10
0.0
 11
1.414214
 20
16.001084
 21
14.586871
  0
LINE
  8
APS_GEOMETRY
 10
0.0
 11
1.414214
 20
0.0
 21
1.414214
  0
LINE
  8
APS_GEOMETRY
 10
27.072908
 11
25.658695
 20
-0.073223
 21
1.340991
  0
LINE
  8
APS_GEOMETRY
 10
27.072908
 11
25.658695
 20
13.700108
 21
12.285895
  0
LINE
  8
APS_GEOMETRY
 10
13.499892
 11
13.499892
 20
-1.281408
 21
0.941089
  0
LINE
  8
APS_GEOMETRY
 10
28.281092
 11
25.027626
 20
6.813442
 21
6.813442
  0
LINE
  8
APS_GEOMETRY
 10
21.763592
 11
-1.281408
 20
6.813442
 21
6.813442
  0
LINE
  8
APS_GEOMETRY
 10
6.506586
 11
6.506586
 20
17.282492
 21
13.841897
  0
LINE
  8
APS_GEOMETRY
 10
6.506586
 11
6.506586
 20
10.521221
 21
-1.281408
  0
LINE
  8
APS_GEOMETRY
 10
19.130181
 11
19.130181
 20
14.908292
 21
12.587419
  0
LINE
  8
APS_GEOMETRY
 10
19.130181
 11
19.130181
 20
9.906281
 21
-1.281408
  0
LINE
  8
CONSTRUCTION
 10
1.218848
 11
1.3202
 20
13.733758
 21
13.83511
  0
ARC
  8
CONSTRUCTION
 10
1.265989
 20
13.889321
 40
0.076667
 50
315.0
 51
135.0
  0
LINE
  8
CONSTRUCTION
 10
1.211777
 11
1.110425
 20
13.943533
 21
13.842181
  0
LINE
  8
CONSTRUCTION
 10
1.110425
 11
1.322557
 20
13.842181
 21
13.630049
  0
LINE
  8
CONSTRUCTION
 10
1.313129
 11
1.463979
 20
13.828039
 21
13.77147
  0
LINE
  8
CONSTRUCTION
 10
1.683666
 11
1.506889
 20
14.142774
 21
13.965998
  0
LINE
  8
CONSTRUCTION
 10
1.506889
 11
1.495104
 20
13.965998
 21
13.977783
  0
LINE
  8
CONSTRUCTION
 10
1.495104
 11
1.483319
 20
13.977783
 21
14.22527
  0
LINE
  8
CONSTRUCTION
 10
1.483319
 11
1.495104
 20
14.22527
 21
14.237055
  0
LINE
  8
CONSTRUCTION
 10
1.495104
 11
1.707236
 20
14.237055
 21
14.024923
  0
CIRCLE
  8
CONSTRUCTION
 10
1.790089
 20
14.150217
 40
0.03
  0
ARC
  8
CONSTRUCTION
 10
1.87122
 20
14.324437
 40
0.093543
 50
253.751948
 51
303.48402
  0
ARC
  8
CONSTRUCTION
 10
1.824591
 20
14.399098
 40
0.181553
 50
302.758312
 51
331.480382
  0
ARC
  8
CONSTRUCTION
 10
1.909635
 20
14.353893
 40
0.08525
 50
330.885172
 51
10.197039
  0
ARC
  8
CONSTRUCTION
 10
1.909722
 20
14.35475
 40
0.085017
 50
9.638795
 51
76.268726
  0
ARC
  8
CONSTRUCTION
 10
1.90841
 20
14.352057
 40
0.087947
 50
75.855291
 51
120.402309
  0
ARC
  8
CONSTRUCTION
 10
1.946091
 20
14.289154
 40
0.16127
 50
120.6389
 51
149.3611
  0
ARC
  8
CONSTRUCTION
 10
1.64392
 20
14.450803
 40
0.18171
 50
334.068075
 51
30.63788
  0
LINE
  8
CONSTRUCTION
 10
1.800264
 11
1.670628
 20
14.543405
 21
14.413767
  0
LINE
  8
CONSTRUCTION
 10
1.863921
 11
2.017128
 20
14.605949
 21
14.759156
  0
LINE
  8
CONSTRUCTION
 10
2.017128
 11
2.028911
 20
14.759156
 21
14.74737
  0
ARC
  8
CONSTRUCTION
 10
2.366813
 20
14.698767
 40
0.34138
 50
171.8148
 51
226.6842
  0
ARC
  8
CONSTRUCTION
 10
2.261895
 20
14.735038
 40
0.11194
 50
247.7274
 51
292.2726
  0
ARC
  8
CONSTRUCTION
 10
2.261685
 20
14.737726
 40
0.11451
 50
291.860287
 51
338.140726
  0
ARC
  8
CONSTRUCTION
 10
2.266661
 20
14.736179
 40
0.109317
 50
337.922067
 51
42.893283
  0
ARC
  8
CONSTRUCTION
 10
2.27472
 20
14.743431
 40
0.098477
 50
42.993348
 51
116.191207
  0
ARC
  8
CONSTRUCTION
 10
2.293017
 20
14.706387
 40
0.139793
 50
116.219129
 51
153.775441
  0
ARC
  8
CONSTRUCTION
 10
2.269803
 20
14.717085
 40
0.114243
 50
153.443904
 51
183.941081
  0
LINE
  8
CONSTRUCTION
 10
2.155829
 11
2.078047
 20
14.709233
 21
14.820013
  0
LINE
  8
CONSTRUCTION
 10
2.078047
 11
2.184113
 20
14.820013
 21
14.926079
  0
LINE
  8
CONSTRUCTION
 10
2.282456
 11
2.27185
 20
15.005191
 21
14.994585
  0
LINE
  8
CONSTRUCTION
 10
2.27185
 11
2.261243
 20
14.994585
 21
15.005191
  0
LINE
  8
CONSTRUCTION
 10
2.261243
 11
2.27185
 20
15.005191
 21
15.015798
  0
LINE
  8
CONSTRUCTION
 10
2.27185
 11
2.297305
 20
15.015798
 21
14.990342
  0
LINE
  8
CONSTRUCTION
 10
2.297305
 11
2.310033
 20
14.990342
 21
14.973371
  0
LINE
  8
CONSTRUCTION
 10
2.310033
 11
2.316397
 20
14.973371
 21
14.958522
  0
LINE
  8
CONSTRUCTION
 10
2.334168
 11
2.323561
 20
15.056534
 21
15.045927
  0
LINE
  8
CONSTRUCTION
 10
2.323561
 11
2.312954
 20
15.045927
 21
15.056534
  0
LINE
  8
CONSTRUCTION
 10
2.312954
 11
2.323561
 20
15.056534
 21
15.067141
  0
LINE
  8
CONSTRUCTION
 10
2.323561
 11
2.349017
 20
15.067141
 21
15.041685
  0
LINE
  8
CONSTRUCTION
 10
2.349017
 11
2.361745
 20
15.041685
 21
15.024714
  0
LINE
  8
CONSTRUCTION
 10
2.361745
 11
2.368109
 20
15.024714
 21
15.009865
  0
LINE
  8
CONSTRUCTION
 10
24.880355
 11
24.981707
 20
1.072609
 21
1.173961
  0
ARC
  8
CONSTRUCTION
 10
24.927495
 20
1.228172
 40
0.076667
 50
315.0
 51
135.0
  0
LINE
  8
CONSTRUCTION
 10
24.873284
 11
24.771932
 20
1.282384
 21
1.181032
  0
LINE
  8
CONSTRUCTION
 10
24.771932
 11
24.984064
 20
1.181032
 21
0.9689
  0
LINE
  8
CONSTRUCTION
 10
24.974636
 11
25.125485
 20
1.16689
 21
1.110321
  0
LINE
  8
CONSTRUCTION
 10
25.36875
 11
25.191974
 20
1.495153
 21
1.318377
  0
LINE
  8
CONSTRUCTION
 10
25.191974
 11
25.180188
 20
1.318377
 21
1.330162
  0
LINE
  8
CONSTRUCTION
 10
25.180188
 11
25.168403
 20
1.330162
 21
1.577649
  0
LINE
  8
CONSTRUCTION
 10
25.168403
 11
25.180188
 20
1.577649
 21
1.589434
  0
LINE
  8
CONSTRUCTION
 10
25.180188
 11
25.392321
 20
1.589434
 21
1.377302
  0
CIRCLE
  8
CONSTRUCTION
 10
25.475173
 20
1.502596
 40
0.03
  0
LINE
  8
CONSTRUCTION
 10
25.560468
 11
25.596862
 20
1.545304
 21
1.581698
  0
LINE
  8
CONSTRUCTION
 10
25.596862
 11
25.633256
 20
1.581698
 21
1.618092
  0
LINE
  8
CONSTRUCTION
 10
25.596862
 11
25.38473
 20
1.581698
 21
1.79383
  0
LINE
  8
CONSTRUCTION
 10
25.38473
 11
25.38473
 20
1.79383
 21
1.721043
  0
LINE
  8
CONSTRUCTION
 10
25.817105
 11
25.675682
 20
1.801939
 21
1.660519
  0
ARC
  8
CONSTRUCTION
 10
25.750354
 20
1.73539
 40
0.105743
 50
166.813563
 51
225.07656
  0
LINE
  8
CONSTRUCTION
 10
25.647399
 11
25.67804
 20
1.759513
 21
1.889148
  0
ARC
  8
CONSTRUCTION
 10
25.607172
 20
1.907846
 40
0.073293
 50
345.220013
 51
104.779436
  0
ARC
  8
CONSTRUCTION
 10
25.622867
 20
1.86418
 40
0.119587
 50
106.713834
 51
163.283685
  0
ARC
  8
CONSTRUCTION
 10
25.576644
 20
1.87772
 40
0.071423
 50
163.0207
 51
214.4717
  0
ARC
  8
CONSTRUCTION
 10
25.855469
 20
1.995907
 40
0.11194
 50
247.7274
 51
292.2726
  0
ARC
  8
CONSTRUCTION
 10
25.855259
 20
1.998594
 40
0.11451
 50
291.860287
 51
338.140726
  0
ARC
  8
CONSTRUCTION
 10
25.860235
 20
1.997048
 40
0.109317
 50
337.922067
 51
42.893283
  0
ARC
  8
CONSTRUCTION
 10
25.868293
 20
2.0043
 40
0.098477
 50
42.993348
 51
116.191207
  0
ARC
  8
CONSTRUCTION
 10
25.88659
 20
1.967255
 40
0.139793
 50
116.219129
 51
153.775441
  0
ARC
  8
CONSTRUCTION
 10
25.863376
 20
1.977954
 40
0.114243
 50
153.443904
 51
183.941081
  0
LINE
  8
CONSTRUCTION
 10
25.749403
 11
25.671621
 20
1.970102
 21
2.080882
  0
LINE
  8
CONSTRUCTION
 10
25.671621
 11
25.777687
 20
2.080882
 21
2.186948
  0
LINE
  8
CONSTRUCTION
 10
25.87603
 11
25.865423
 20
2.26606
 21
2.255453
  0
LINE
  8
CONSTRUCTION
 10
25.865423
 11
25.854817
 20
2.255453
 21
2.26606
  0
LINE
  8
CONSTRUCTION
 10
25.854817
 11
25.865423
 20
2.26606
 21
2.276667
  0
LINE
  8
CONSTRUCTION
 10
25.865423
 11
25.890879
 20
2.276667
 21
2.251211
  0
LINE
  8
CONSTRUCTION
 10
25.890879
 11
25.903607
 20
2.251211
 21
2.23424
  0
LINE
  8
CONSTRUCTION
 10
25.903607
 11
25.909971
 20
2.23424
 21
2.219391
  0
LINE
  8
CONSTRUCTION
 10
25.927741
 11
25.917135
 20
2.317403
 21
2.306796
  0
LINE
  8
CONSTRUCTION
 10
25.917135
 11
25.906528
 20
2.306796
 21
2.317403
  0
LINE
  8
CONSTRUCTION
 10
25.906528
 11
25.917135
 20
2.317403
 21
2.328009
  0
LINE
  8
CONSTRUCTION
 10
25.917135
 11
25.942591
 20
2.328009
 21
2.302554
  0
LINE
  8
CONSTRUCTION
 10
25.942591
 11
25.955319
 20
2.302554
 21
2.285583
  0
LINE
  8
CONSTRUCTION
 10
25.955319
 11
25.961683
 20
2.285583
 21
2.270734
  0
LINE
  8
CONSTRUCTION
 10
24.821464
 11
24.922816
 20
12.52977
 21
12.428418
  0
ARC
  8
CONSTRUCTION
 10
24.977028
 20
12.48263
 40
0.076667
 50
225.0
 51
45.0
  0
LINE
  8
CONSTRUCTION
 10
25.031239
 11
24.929887
 20
12.536841
 21
12.638193
  0
LINE
  8
CONSTRUCTION
 10
24.929887
 11
24.717755
 20
12.638193
 21
12.426061
  0
LINE
  8
CONSTRUCTION
 10
24.915745
 11
24.859177
 20
12.435489
 21
12.28464
  0
LINE
  8
CONSTRUCTION
 10
25.244009
 11
25.067232
 20
12.041374
 21
12.218151
  0
LINE
  8
CONSTRUCTION
 10
25.067232
 11
25.079017
 20
12.218151
 21
12.229936
  0
LINE
  8
CONSTRUCTION
 10
25.079017
 11
25.326505
 20
12.229936
 21
12.241721
  0
LINE
  8
CONSTRUCTION
 10
25.326505
 11
25.33829
 20
12.241721
 21
12.229936
  0
LINE
  8
CONSTRUCTION
 10
25.33829
 11
25.126158
 20
12.229936
 21
12.017804
  0
CIRCLE
  8
CONSTRUCTION
 10
25.251452
 20
11.934952
 40
0.03
  0
LINE
  8
CONSTRUCTION
 10
25.29416
 11
25.330554
 20
11.849657
 21
11.813263
  0
LINE
  8
CONSTRUCTION
 10
25.330554
 11
25.366948
 20
11.813263
 21
11.776869
  0
LINE
  8
CONSTRUCTION
 10
25.330554
 11
25.542686
 20
11.813263
 21
12.025395
  0
LINE
  8
CONSTRUCTION
 10
25.542686
 11
25.469898
 20
12.025395
 21
12.025395
  0
LINE
  8
CONSTRUCTION
 10
25.550794
 11
25.409374
 20
11.59302
 21
11.734442
  0
ARC
  8
CONSTRUCTION
 10
25.484246
 20
11.65977
 40
0.105743
 50
76.813563
 51
135.07656
  0
LINE
  8
CONSTRUCTION
 10
25.508368
 11
25.638004
 20
11.762726
 21
11.732085
  0
ARC
  8
CONSTRUCTION
 10
25.656701
 20
11.802953
 40
0.073293
 50
255.220013
 51
14.779436
  0
ARC
  8
CONSTRUCTION
 10
25.613035
 20
11.787258
 40
0.119587
 50
16.713834
 51
73.283685
  0
ARC
  8
CONSTRUCTION
 10
25.626575
 20
11.833481
 40
0.071423
 50
73.0207
 51
124.4717
  0
ARC
  8
CONSTRUCTION
 10
25.744762
 20
11.554656
 40
0.11194
 50
157.7274
 51
202.2726
  0
ARC
  8
CONSTRUCTION
 10
25.74745
 20
11.554866
 40
0.11451
 50
201.860287
 51
248.140726
  0
ARC
  8
CONSTRUCTION
 10
25.745903
 20
11.54989
 40
0.109317
 50
247.922067
 51
312.893283
  0
ARC
  8
CONSTRUCTION
 10
25.753155
 20
11.541831
 40
0.098477
 50
312.993348
 51
26.191207
  0
ARC
  8
CONSTRUCTION
 10
25.716111
 20
11.523534
 40
0.139793
 50
26.219129
 51
63.775441
  0
ARC
  8
CONSTRUCTION
 10
25.726809
 20
11.546748
 40
0.114243
 50
63.443904
 51
93.941081
  0
LINE
  8
CONSTRUCTION
 10
25.718957
 11
25.829737
 20
11.660721
 21
11.738503
  0
LINE
  8
CONSTRUCTION
 10
25.829737
 11
25.935803
 20
11.738503
 21
11.632437
  0
LINE
  8
CONSTRUCTION
 10
26.014915
 11
26.004309
 20
11.534095
 21
11.544701
  0
LINE
  8
CONSTRUCTION
 10
26.004309
 11
26.014915
 20
11.544701
 21
11.555308
  0
LINE
  8
CONSTRUCTION
 10
26.014915
 11
26.025522
 20
11.555308
 21
11.544701
  0
LINE
  8
CONSTRUCTION
 10
26.025522
 11
26.000066
 20
11.544701
 21
11.519246
  0
LINE
  8
CONSTRUCTION
 10
26.000066
 11
25.983096
 20
11.519246
 21
11.506518
  0
LINE
  8
CONSTRUCTION
 10
25.983096
 11
25.968246
 20
11.506518
 21
11.500154
  0
LINE
  8
CONSTRUCTION
 10
26.066258
 11
26.055652
 20
11.482383
 21
11.49299
  0
LINE
  8
CONSTRUCTION
 10
26.055652
 11
26.066258
 20
11.49299
 21
11.503596
  0
LINE
  8
CONSTRUCTION
 10
26.066258
 11
26.076865
 20
11.503596
 21
11.49299
  0
LINE
  8
CONSTRUCTION
 10
26.076865
 11
26.051409
 20
11.49299
 21
11.467534
  0
LINE
  8
CONSTRUCTION
 10
26.051409
 11
26.034438
 20
11.467534
 21
11.454806
  0
LINE
  8
CONSTRUCTION
 10
26.034438
 11
26.019589
 20
11.454806
 21
11.448442
  0
LINE
  8
CONSTRUCTION
 10
1.279342
 11
1.380694
 20
2.300217
 21
2.198865
  0
ARC
  8
CONSTRUCTION
 10
1.434905
 20
2.253076
 40
0.076667
 50
225.0
 51
45.0
  0
LINE
  8
CONSTRUCTION
 10
1.489117
 11
1.387765
 20
2.307288
 21
2.40864
  0
LINE
  8
CONSTRUCTION
 10
1.387765
 11
1.175633
 20
2.40864
 21
2.196508
  0
LINE
  8
CONSTRUCTION
 10
1.373623
 11
1.317054
 20
2.205936
 21
2.055086
  0
LINE
  8
CONSTRUCTION
 10
1.688358
 11
1.511581
 20
1.835399
 21
2.012176
  0
LINE
  8
CONSTRUCTION
 10
1.511581
 11
1.523366
 20
2.012176
 21
2.023961
  0
LINE
  8
CONSTRUCTION
 10
1.523366
 11
1.770854
 20
2.023961
 21
2.035746
  0
LINE
  8
CONSTRUCTION
 10
1.770854
 11
1.782639
 20
2.035746
 21
2.023961
  0
LINE
  8
CONSTRUCTION
 10
1.782639
 11
1.570507
 20
2.023961
 21
1.811829
  0
CIRCLE
  8
CONSTRUCTION
 10
1.695801
 20
1.728976
 40
0.03
  0
ARC
  8
CONSTRUCTION
 10
1.870021
 20
1.647845
 40
0.093543
 50
163.751948
 51
213.48402
  0
ARC
  8
CONSTRUCTION
 10
1.944681
 20
1.694475
 40
0.181553
 50
212.758312
 51
241.480382
  0
ARC
  8
CONSTRUCTION
 10
1.899476
 20
1.60943
 40
0.08525
 50
240.885172
 51
280.197039
  0
ARC
  8
CONSTRUCTION
 10
1.900334
 20
1.609344
 40
0.085017
 50
279.638795
 51
346.268726
  0
ARC
  8
CONSTRUCTION
 10
1.89764
 20
1.610655
 40
0.087947
 50
345.855291
 51
30.402309
  0
ARC
  8
CONSTRUCTION
 10
1.834738
 20
1.572975
 40
0.16127
 50
30.6389
 51
59.3611
  0
ARC
  8
CONSTRUCTION
 10
1.996387
 20
1.875145
 40
0.18171
 50
244.068075
 51
300.63788
  0
LINE
  8
CONSTRUCTION
 10
2.088988
 11
1.959351
 20
1.718801
 21
1.848438
  0
LINE
  8
CONSTRUCTION
 10
2.151533
 11
2.30474
 20
1.655144
 21
1.501937
  0
LINE
  8
CONSTRUCTION
 10
2.30474
 11
2.292954
 20
1.501937
 21
1.490154
  0
ARC
  8
CONSTRUCTION
 10
2.24435
 20
1.152252
 40
0.34138
 50
81.8148
 51
136.6842
  0
ARC
  8
CONSTRUCTION
 10
2.280621
 20
1.25717
 40
0.11194
 50
157.7274
 51
202.2726
  0
ARC
  8
CONSTRUCTION
 10
2.283309
 20
1.25738
 40
0.11451
 50
201.860287
 51
248.140726
  0
ARC
  8
CONSTRUCTION
 10
2.281762
 20
1.252404
 40
0.109317
 50
247.922067
 51
312.893283
  0
ARC
  8
CONSTRUCTION
 10
2.289015
 20
1.244346
 40
0.098477
 50
312.993348
 51
26.191207
  0
ARC
  8
CONSTRUCTION
 10
2.25197
 20
1.226049
 40
0.139793
 50
26.219129
 51
63.775441
  0
ARC
  8
CONSTRUCTION
 10
2.262668
 20
1.249263
 40
0.114243
 50
63.443904
 51
93.941081
  0
LINE
  8
CONSTRUCTION
 10
2.254816
 11
2.365597
 20
1.363236
 21
1.441018
  0
LINE
  8
CONSTRUCTION
 10
2.365597
 11
2.471663
 20
1.441018
 21
1.334952
  0
LINE
  8
CONSTRUCTION
 10
2.550775
 11
2.540168
 20
1.236609
 21
1.247216
  0
LINE
  8
CONSTRUCTION
 10
2.540168
 11
2.550775
 20
1.247216
 21
1.257822
  0
LINE
  8
CONSTRUCTION
 10
2.550775
 11
2.561381
 20
1.257822
 21
1.247216
  0
LINE
  8
CONSTRUCTION
 10
2.561381
 11
2.535926
 20
1.247216
 21
1.22176
  0
LINE
  8
CONSTRUCTION
 10
2.535926
 11
2.518955
 20
1.22176
 21
1.209032
  0
LINE
  8
CONSTRUCTION
 10
2.518955
 11
2.504106
 20
1.209032
 21
1.202668
  0
LINE
  8
CONSTRUCTION
 10
2.602118
 11
2.591511
 20
1.184898
 21
1.195504
  0
LINE
  8
CONSTRUCTION
 10
2.591511
 11
2.602118
 20
1.195504
 21
1.206111
  0
LINE
  8
CONSTRUCTION
 10
2.602118
 11
2.612724
 20
1.206111
 21
1.195504
  0
LINE
  8
CONSTRUCTION
 10
2.612724
 11
2.587268
 20
1.195504
 21
1.170048
  0
LINE
  8
CONSTRUCTION
 10
2.587268
 11
2.570298
 20
1.170048
 21
1.15732
  0
LINE
  8
CONSTRUCTION
 10
2.570298
 11
2.555449
 20
1.15732
 21
1.150956
  0
TEXT
  8
TEXT
 10
10.091739
 20
11.04285
 30
0.0
 40
1.0
 50
0.0
  1
KARRAN
  0
TEXT
  8
TEXT
 10
19.759142
 20
2.700308
 30
0.0
 40
0.5
 50
0.0
  1
Template line is
  0
TEXT
  8
TEXT
 10
19.759142
 20
1.950308
 30
0.0
 40
0.5
 50
0.0
  1
i
  0
TEXT
  8
TEXT
 10
19.987773
 20
1.950308
 30
0.0
 40
0.5
 50
0.0
  1
nside perimeter
  0
TEXT
  8
TEXT
 10
19.759142
 20
1.200308
 30
0.0
 40
0.5
 50
0.0
  1
of sink
  0
TEXT
  8
TEXT
 10
21.746377
 20
3.839232
 30
0.0
 40
0.5
 50
0.0
  1
y
  0
TEXT
  8
TEXT
 10
19.777564
 20
3.839232
 30
0.0
 40
0.5
 50
0.0
  1
accurac
  0
TEXT
  8
TEXT
 10
19.777564
 20
4.589232
 30
0.0
 40
0.5
 50
0.0
  1
with sink for
  0
TEXT
  8
TEXT
 10
19.777564
 20
5.339232
 30
0.0
 40
0.5
 50
0.0
  1
Please check template
  0
TEXT
  8
TEXT
 10
6.952544
 20
9.041399
 30
0.0
 40
1.0
 50
0.0
  1
PU23R & PU53R
  0
ENDSEC
  0
EOF
